printeaza

Phoenix – Pasarea Calandrinon

Contribuţie: anonime
Rating: ***** (9 voturi)
INTRO - chitara electrica cu distorsiune/overdrive 

                                                          
e|--------------------|------------------------|----------------------| 
B|--------------------|------------------------|----------------------| 
G|--------------------|------------------------|------------5-5--7-7--| 
D|------5-7------7--7-|------5-7----------7--7-|-7--5--5----5-5--7-7--| 
A|-5-7------5-7--7--7-|-5-7------5-7------7--7-|-7--5--5----3-3--5-5--| 
E|---------------5--5-|-------------------5--5-|-5--3--3--------------| 

STROFA - double-six 

        
Vine fara s-o chemi 
          
I-auzi bate-n geam... etc. 

*la ultimul vers (..."cu ochi de margean"), pe acordul A5 se intra direct in INTRO 

INTRO 

STROFA 

BRIDGE - chitara electrica si double-six 

e|---------------|------------------------------------|-----------------------------------| 
B|---------------|------------------------------------|-----------------------------------| 
G|---------------|----------5-----4-5-7--7-5-4--------|---------5-----4-5-7--7-5-4--------| 
D|-7-7-7-7-7-7---|---5-7-----7------------------7-5~--|----5-7-----7------------------5-7~| 
A|-7-7-7-7-7-7---|-7----------------------------------|-7---------------------------------| 
E|-5-5-5-5-5-5---|------------------------------------|-----------------------------------| 
... fierastrau 

NOTE 
-de la Aniversare 35 incoace, se canta cu un ton mai sus, deci plecand din Si (B5)
Etichete:

Acorduri