Mihai Constantinescu – Maria-Mirabela (solo)

(9 voturi)

Contribuție:  rasgeado


Muzica: Eugen Doga

Ma-ri- a  Mi- ra- be-        la                                          
E||------------------------------|----------------------|-----------------|
B||----------------------5s------|--3------5-----7------|--L----3----5----|
G||------------------2-----------|----------------------|-----------------|
D||--2g4--2h-----4---------------|----------------------|-----------------|
A||-----------5------------------|----------------------|-----------------|
E||------------------------------|----------------------|-----------------|


---------------------|---------------------------|------------------------|
---------------------|---------------------------|------------------------|
--7------------------|----------------4--2--2----|----------------4--2--2-|
-----7--5------------|--0g2--0-----2-------------|--0g2--0-----2----------|
---------------------|----------4----------------|----------4-------------|
---------------------|---------------------------|------------------------|

 
---------------------|---------------------|------------------------------|
---------------------|---------------------|----------------------5s------|
--2--4------2--------|---------------------|------------------2-----------|
------------------2--|--2--4---------------|--2g4--2h-----4---------------|
---------------------|---------------------|-----------5------------------|
---------------------|---------------------|------------------------------|


---------2-----5------|--2------5--12--10------|--L---------------------|
--3-------------------|------------------------|------------------------|
----------------------|------------------------|-------11----12------L--|
----------------------|------------------------|------------------------|
----------------------|------------------------|------------------------|
----------------------|------------------------|------------------------|


--------------------7--9---------|--------------------7--9---------|
--9g10--10--10--10--------10-----|--9g10--10--10--10--------10-----|
---------------------------------|---------------------------------|
---------------------------------|---------------------------------|
---------------------------------|---------------------------------|
---------------------------------|---------------------------------|


------7-----------------|----------------------|
--10---------10---------|----------------------|
---------------------9--|--9--11---------------|
------------------------|----------------------|
------------------------|----------------------|
------------------------|----------------------|


--------------------7--9---------|----------------------------|
--9g10--10--10--10--------10-----|----------------------------|
---------------------------------|----------------------------|
---------------------------------|----------------------------|
---------------------------------|-------------------4--------|
---------------------------------|--4g5--5--5--5--7-----5-----|


------15---14-------15---14---|------19p------17------12h--|
--10------------10------------|--10------------------------|
------------------------------|----------------------------|
------------------------------|----------------------------|
------------------------------|----------------------------|
------------------------------|----------------------------|


--14--10---------------||
-----------------------||
-----------------------||
-----------------------||
-----------------------||
-----------------------||

Pentru a putea vota sau adăuda comentarii, e nevoie să te autentifici sau înregistrezi .