Vița de Vie – Ce conteaza...

(11 voturi)

Contribuție:  Toppy


                                                         
E|------------|--3--2-------2|-----2/3\2-0--|--0---0-------|                  
B|--2/3\2--0--|--3----2---2--|----3--------0|--2-----2-----|                   
G|--2--------2|--0------0----|---2----------|--2-------2--2|                   
D|--2---------|--0-----------|--0-----------|--2---------2-|                    
A|--0---------|--2-----------|--------------|--0-----------|                    
E|------------|--3-----------|--------------|--------------|                    
                                                                               
                                                            
E|------------|--3--2--------|--------------|--------------|--------------|     
B|--2/3\2--0--|--3----2------|--------0-----|--------------|--2/3\2-2-----|     
G|--2--------2|--0------0----|--2/4\2 --2---|--------------|--2-------2---|     
D|--2---------|--0-----------|--------------|--2/4\--------|--2-----------|     
A|--0---------|--2-----------|--------------|--------------|--0-----------|     
E|------------|--3-----------|--------------|--------------|--------------|  
 

                                    
S1    Sunt speriat, nu stiu cum sa ma imbrac
                                   
      Poate noaptea asta voi deveni barbat
                              
      Am repetat tot ce m-au invatat
                                                    
      Sa-ncerc sa fiu altcineva si sa fiu foarte degajat
 
 
R:
                                   
      Dar ce conteaza cand hashish fumeaza
                                
      Nu se lasa de fugit de-acasa 
 
      
S2    Sunt pregatit, clipa a sosit
      Incerc sa pac o gluma dar palmale-mi sunt ude, tremur si m-am balbait
      M-a refuzat, a ras de mine si a plecat
      Ia m-a refuzat da a ras de mine si-a plecat

R:

                                   
B:      Eu credeam ca ea pe mine ma dorea
                                 
        Nu era asa ,vroia altceva

Rock  

Ultima actualizare:  15.09.2011

Comentarii

Pentru a putea vota sau adăuda comentarii, e nevoie să te autentifici sau înregistrezi .

Acorduri