Chester – Cald

(11 voturi)

Contribuție:  irsk8er


piesa se deschide cu chitara I

e|-------------------------------------------------------|
B|-------------------------------------------------------|
G|---------10------10--10----10--10p9-----9---------9--9-|
D|----7-------7--7--------7------------7------7--7-------|
A|-------------------------------------------------------|
E|-------------------------------------------------------|

e|-----------------------------------------------------------------------------------
B|-----------------------------------------------------------------------------------
G|-----9-----------5---------5--5-------5-----------7------------7--7--------7-------
D|--7-----7----7-------7--7---------7-------7----7-------7--7-----------7---------7--
A|-----------------------------------------------------------------------------------
E|-----------------------------------------------------------------------------------


dupa care intra si chitara II:

                                       
e|------------------------------------------------------
B|------------------------------------------------------
G|-----------------------------------------555555555----
D|--333333333----777777777----888888888----555555555----
A|--333333333----777777777----888888888----333333333----
E|--111111111----555555555----666666666-----------------

                    
invie-mi acum ceva amintiri
                                
intinde-ma ncet pe strazi si priviri
                                 
nimic nu-i de-ajuns nu-i bloc mai inalt
                           
pentru mine niciodata nu e cald
                               
sa pot sa ma schimb cat mai am timp,sa imi para rau
                                     
sunt lucruri pe care le-as face daca nu as mai fi eu


                   
cu capul peste geam plecat
                          
cu ochii la baltile de pe asfalt
                           
m-agat de un gand ca sa nu cad
                                 
ma agat de un zambet sa imi tina cald
                      
cu capul peste geam plecat
                         
cu ochii la baltile de pe asfalt
                           
m-agat de un gand ca sa nu cad

ma agat de un zambet sa imi tina...
                                       
sa imi tina cald   (doar instrumental)


                            
prin locuri straine ma gasesc mereu
                             
cu toate astea stiu ca sunt doar eu
                                  
nu ma simt puternic caci intr-un final
                         
te am pe tine sa ma faci slab
                             
luni fara numar cu ploi care cad
                     
aceeiasi piesa,unicul act
                        
toate astea arata viata printr-un geam spart


                    
cu capul peste geam plecat
                          
cu ochii la baltile de pe asfalt
                           
m-agat de un gand ca sa nu cad

ma agat de un zambet sa imi tina...
                                       
sa imi tina cald    (doar instrumental)


                   
cu capul peste geam plecat
                          
cu ochii la baltile de pe asfalt
                           
m-agat de un gand ca sa nu cad

ma agat de un zambet sa imi tina... 
              
sa imi tina cald



tabbed by irsk8er

daca aveti intrebari... irsk8er923@yahoo.com

Ultima actualizare:  15.10.2009

Comentarii

Pentru a putea vota sau adăuda comentarii, e nevoie să te autentifici sau înregistrezi .

Acorduri