Chester – Privesc in sus

(3 voturi)

Contribuție:  ghit razvan


INTRO:

  CHITARA I (merge si pe strofe)

e|-------------------------------|
B|-------------------------------|
G|--6xxxxx999xxxx6xxxxx999777----|
D|--xxxxxxxxxxxxxxxxxxxxxxxxx----|
A|--4xxxxx777xxxx4xxxxx777555----|
E|-------------------------------|

  CHITARA II (merge si pe strofe)

    A   F#m   D    E
e|--5---2-----2----4-----|
B|--5---2-----3----5-----|
G|--6---2-----2----4-----|
D|--7---4----------------|
A|--5---4----------------|
E|--5---2----------------|


                                 
Nu pot sa spun ca n-as vrea, 
                
Sa dau timpul inapoi
                          
Sa fiu departe de acest oras, 
           
Acoperit de nori
                         
As putea da cu un zar dac-as stii...
                     
Pentru doua secunde 
                  
Macar ca ai putea lua 
                        
Locul acelui pahar
                                               
Stai ai auzit acel sunet, am cazut eu pe podea
                    
Am castigat la loto zile pierdute
                                
Totul....in imaginatia mea.

LA REFREN:

cHITARA I 

e|--------------12-----------------12----|-------------12------------------------|
B|---------------------------------------|---------------------------------------|
G|--14-14-14-14----14-14-14-14-14-----13-|-14-14-14-14----14-14-14-14-14--16--13-|
D|---------------------------------------|---------------------------------------|
A|---------------------------------------|---------------------------------------|
E|---------------------------------------|---------------------------------------|


CHITARA II

    A5 F#5  D5  E5
e|-------------------|
B|-------------------|
G|----------7--------|
D|--7---4---7---2----|
A|--5---4---5---2----|
E|--5---2-------0----|


                                    
Ref: Cand ai plecat n-am vazut, n-am realizat
                                        
     Ce e de facut, nu regret timpul pierdut
                                
     Ma intreb cum ar fi fost, cu un an in plus
                                                  
     Nu imi e de-ajuns,   eu mereu privesc in sus.
                                
     Mereu privesc in sus......


Mereu privesc in sus, asta ma cam intristeaza
Tot ce-i albastru dauneaza
Ma las mirat de a timpului viteza
De ce Mircea canta asa prost in engleza...da..


Ref:..


BRIDGE: CHITARA II de pe strofa + CHITARA I de pe refren.

Ref:...

Pentru a putea vota sau adăuda comentarii, e nevoie să te autentifici sau înregistrezi .

Acorduri