Pavel Stratan – Eu beu

(44 voturi)

Contribuție:  rasgeado


Intro:


E||------------------------------|-----------------------------------|
B||------------------------------|-----------------------------------|
G||------------------------------|-----------------------------------|
D||-----2------------------------|--------0----0----0-2-0------------|
A||-------3--2-0----------0----2-|-----3---------------------3-2---3-|
E||------------------------------|-----------------------------------|


----------------------------|---------------------------------|
----------------------------|---------------------------------|
----------------------------|---------------------------------|
----0-----------------------|---------0-2----0----------------|
------------------0--2--3---|--3----3----------3----2--0------|
-------------3--------------|---------------------------------|


------------------------------------|------------------------------------|
------------------------------------|------------------------------------|
------------------------------------|------------------------------------|
--------------------0----0----0-2-0-|-------------------0---------0----2-|
------0----2----3-------------------|------3---2----3--------------------|
------------------------------------|------------------------------------|


-------------------------------------|-------------------------||
-------------------------------------|-------------------------||
-------------------------------------|-------------------------||
------3---2---2----2-3-2---0---------|-------------------------||
-------------------------------3---2-|----0--------------------||
-------------------------------------|-------------------------||

                
Eu beu puţin, puţin câte puţin
                                    
Pân capu neu pe umeri nu mai pot să-l ţin
                            
şi am să beu atâta păn când an sa aflu cine
                                            
Poate sa-mi spuie cât sa beu să-ni şie numa ghine

Când dau încet să mă îndrept
Jenunchii cad pe lânga chept
Eu n-am ştiut că dacă eşti bat
Te faci deodata acrobat
Să şadă tăţ cum eu am şăst
Să vadă tăţ ce eu am văzt
Să-şi ungă tăţ cum eu ni-an uns 
Cu grijă gâtu-ndeajiuns

Mă ţin de tăt ce stă în bar
Da ceal mai tare de pahar
Eu înca nimeresc să torn
Cu toate că aproape dorm
Da dacă nu dorm înseamna că îs treaz
şi-afară înca-i azi
Eu pot s-mă ţin şi-ntr-un chişior
Cu-o mâna dacă-s pe ulcior

Da eu mai beu puţi, puţin câte puţin
Pân capu neu pe umeri nu mai pot să-l ţin
şi am să beu atâta păn când an sa aflu cine
Poate sa-mi spuie cât sa beu să-ni şie numa ghine

Ce-nteresant se uita tăţ
La mine cum eu mă învăţ
Cu mâna dreapta să mă-ndrept
Spre buzunarul de la chept
Îi drept ca dacă beu mai des,
Mai des mă trage să fumez
Fumez şi iară după ce fumez
Încep să beu mai des

Eu nu ştiu unde mai încape
Atâta votcă şi lichior
şi nu stiu tăţ de ce se uită 
De parca-as be de banii lor
Da eu mă fac că nu fac nica
şi niş nu stiu că ei mă ştiu
şi eu când am să şiu ca dânsii
Eu tot ca dânsii am să şiu

Da amu mai beu, beu puţin câte puţin
Pân capu neu pe umeri nu mai pot să-l ţin
şi am să beu atâta pan când am sa aflu cine
Poate să-mi spuie cât sa beu sa-ni sie numai ghine

Eu nu ştiu ghine pentru alţii
Ce înseamna da eu stiu
Ca beu ce vreu, manânc ce vreu, 
Ma culc cu cine vreu şi-s jiu
Si dacă îmi spune cineva
Cum ar pute şă şie mai ghine
Mă las de tăte, mă duc acolo
Mă-ntorc înapoi, mă ieu şi pe mine

Da eu mai stau acolo
Unde-ni chică ca sa sed
Unde mă uit şi nu văd nică
Da pe mine tăţ mă vad
Cum beu puţin da des şi mai ales
De-aceala care-am vrut
şi daca am uitat s-ma uit ce beu
Încep de la-nceput

Comentarii

Pentru a putea vota sau adăuda comentarii, e nevoie să te autentifici sau înregistrezi .

Acorduri