Florin Toloarga – Tara lui Negru de Fum

(1 voturi)

Contribuție:  j0hn_b


Intro:                x2

Strofa I:

              
Nu mai ranji la mine,
                  
Ca sunt un tip fragil

Si poate-mi vine
                
Sa mor prin asfixie,
                
Mirosi ca un cavou,
           
Deci cine stie
             
Duduie draga, apa,
              
Ti-e singurul tabu,
                    
Mai spala-te si tu!



Strofa II:

Vai, domnisoara, draga,
Iubesti un pic prea mult culoarea neagra
Incerc sa te ajut si-ti spun
Ca apa nu e doar pentru baut,
Dar cand ti-arat sapunul
Raspunsul tau e: NU!
Mai spala-te si tu!



Refren:

                
Nu mai dau astia apa calda,
                       
Nu se mai fabrica sapun,
              
Traim in tara fara cada,
                     
In tara lui negru de fum.

                
Nu mai dau astia apa calda,
                            
Nu se mai fabrica sapun,
              
Traim in tara fara cada,
                      
In tara lui negru de fum.


Strofa III:

De vrei, iti dau in scris,
Precum ca tunsul nu e interzis
Sau ti-au murit frizerii
Si nu e nimeni sa-ti mai tunda perii
Ceva te defineste
Si-acel ceva e MUUU…
Mai spala-te si tu!


Refren...


Strofa IV:

Asculta-ma pe mine,
Sa intri-n apa nu-i nici o rusine
Si nici macar nu doare,
Asa incat nu-i riscul foarte mare.
Dar dupa prima baie,
Un an intreg zacu.
Mai spala-te si tu!


Refren:

               
Nu mai dau astia apa calda,
                    
Nu se mai fabrica sapun,
             
Traim in tara fara cada,
                  
In tara lui negru de fum.

               
Nu mai dau astia apa calda,
                          
Nu se mai fabrica sapun,
             
Traim in tara fara cada,
                       
In tara lui negru de fum
                       
In tara lui negru de fum
                  
In tara lui negru de fum.



Acordurile pe intro si strofe:

    Dm      A      A7     Bb     C      F
e|---1------0------3------1------0------1--------------
B|---3------2------2------3------1------1--------------
G|---2------2------2------3------0------2--------------
D|---0------2------2------3------2------3--------------
A|----------0------0------1------3------3--------------
E|--------------------------------------1--------------


Acordurile pe refren:

    Dm      A      A7     Bb     Gm     Am     Abm
e|---5------5------5------6------3------5------4-------
B|---6------5------8------6------3------5------4-------
G|---7------6------6------7------3------5------4-------
D|---7------7------5------8------5------7------6-------
A|---5------7------7------8------5------7------6-------
E|----------5------5------6------3------5------4-------

Folk  

Ultima actualizare:  14.05.2009

Comentarii

Pentru a putea vota sau adăuda comentarii, e nevoie să te autentifici sau înregistrezi .

Acorduri