Timpuri Noi – Victoria

(6 voturi)

Contribuție:  Florin Serban


intro:

e|---------------------------------------------------------------|
B|--------------3--------------------------------3---------------|
G|----------2h4---2h4-0--2--0-2-0------------2h4---2h4-0--2--0-2-|
D|-2--2-2h5--------------2--------4-2--2-2h5--------------2------| se repeta
A|-2---------------------0----------2---------------------0------|
E|-0--------------------------------0----------------------------|


Strofa:
              
 Azi serbam iar victoria
 Si indoiala se ascunde in gand
 Azi serbam iar victoria
 Moralul e un strut cu capul in pamant

Ref:
                            
 Te intreb daca vezi vreo schimbare
                            
 Te intreb daca vezi vreo schimbare
                            
 Te intreb daca vezi vreo schimbare

 La oamenii din jur 	e|------------------|
                    	B|------------------|
                   	G|---4-2-0----------|
			D|---------4-0-2----| 
			A|-------------2----|
			E|-------------0----|

intro:

Strofa:
 Azi serbam iar victoria 
 Hingherii dorm si cainii latra-n mahala.
 Azi serbam iar victoria,
 Cu oborocul car lumina si pe strada mea.

Ref:
 Te intreb daca vezi vreo schimbare,
 Ma intreb daca simti vreo schimbare,
 Va intreb daca e vreo schimbare,
 La oamenii din jur

intro:
Bridge:
                         
 Zic voua celor fara de prihana 
 Zic voua pacatosi cu chip smerit
 Si voua luptatorilor cu pieptul rana
 Si tie, politruc nenorocit
 Zic voua care-aveti inca puterea
 Sa scoateti raul care zace-n voi
 Voi care va agonisiti averea
 Ca vagabonzii, scormonind gunoi
 Oho, victoria...

intro
Strofa 1
Ref

Rock  

Comentarii

Pentru a putea vota sau adăuda comentarii, e nevoie să te autentifici sau înregistrezi .

Susține tabulaturi.ro

De mai bine de zece ani, arhiva tabulaturi.ro este un serviciu gratuit. Totuși, menținerea și găzduirea serverului costă, iar publicitatea (care nu ne place nici nouă) acoperă doar o mică parte din cheltuieli. Dacă vrei și poți, susține acest proiect printr-o donație.

Acorduri