Pavel Stratan – Visul

(36 voturi)

Contribuție:  rasgeado


Solo intro:

                             
E||--------------------|------------------------|--------------------|
B||--------------------|------------------------|--------------------|
G||--------------------|------------------------|--------------------|
D||--------------------|------------------------|--------------------|
A||--7--------L--------|--5h--7--5-----5--------|--L-----------------|
E||--------------------|------------8-----------|--------------------|


                                 
--------------------|------------------------|--------------------||
--------------------|------------------------|--------------------||
--------------------|------------------------|--------------------||
--------------------|------------------------|--------------------||
--5--------L--------|--3h--5--3--2-----------|--------------------||
--------------------|---------------5--------|--L-----------------||

Ciupitura cu mana dreapta:

     Am                                        Dm
E||--------0---------|--------0---------|-------1----------|-------1-----------|
B||------1---1---1---|------1---1---1---|-----3---3----3---|-----3---3----3----|
G||----2-------2---2-|----2-------2---2-|---2-------2----2-|---2-------2----2--|
D||------------------|-2----------------|-0----------------|-0-----------------|
A||-0----------------|------------------|------------------|-------------------|
E||------------------|------------------|------------------|-------------------|
          Aseara  am      visat un       vis             fru mos ....    etc... 

(tot asa in continuare pentru restul acordurilor)

                    
Aseara am visat un vis frumos
                     
De parcă tata înapoi s-a-ntors
                             
Dar când am vrut să-l strâng în braţe, să-l cuprind
                      
A dispărut, dar singur am rămas plângând

Ce multe am vrut să-i spun, dar nu i-am spus
Ce multe am vrut să-ntreb dar n-a răspuns
şi-ntr-o secundă am simţit atâta rost
Dar el a dispărut de parcă nici n-a fost

                                              
Tată, tată asta-i prima dată în viaţa mea când cred în ce nu-i drept
                                                   
ştiu că nu-s mitel şi înţeleg că niciodată n-ai s-te-ntorci dar te aştept
                                                   
Poate alţii te-o uitat demult dar la mama, sora, fratele, eu ştiu precis
                                          
Că de când te-ai dus de-acasă uşa încă niciodată nu s-a închis

Rău nu-mi pare tată că vreodată şi de mine o să zică cineva că m-a pierdut
Timpu-aşa-i de crud cu dânsul nimeni încă prieten nu s-o făcut
ştii ce rău îmi pare şi mă doare din ce în ce mai tare, tată ştiu
Că am început să te iubesc pe urmă, mai târziu, dar de-amu era târziu

Ultima actualizare:  13.12.2009

Comentarii

Pentru a putea vota sau adăuda comentarii, e nevoie să te autentifici sau înregistrezi .

Susține tabulaturi.ro

De mai bine de zece ani, arhiva tabulaturi.ro este un serviciu gratuit. Totuși, menținerea și găzduirea serverului costă, iar publicitatea (care nu ne place nici nouă) acoperă doar o mică parte din cheltuieli. Dacă vrei și poți, susține acest proiect printr-o donație.

Acorduri