Backstage Hero – She is

(1 voturi)

Contribuție:  SpitFire


Backstage Hero - She is

Intro:

Chitara 1

E|---------5-----------10---------7----------10--|
B|---------5-----------10---------7----------10--|
G|---------6-----------11---------7----------11--|
D|---------7-----------12---------9----------12--| x2
A|------7----------12----------9----------12-----|/
E|---5---------10-----------7---------10---------|



E|----5-----10-----7----10-----------------------|
B|----5-----10-----7----10-----------------------|
G|----6-----11-----7----11-----------------------|
D|----7-----12-----9----12-----------------------| x2
A|-----------------------------------------------|/
E|-----------------------------------------------|


E|-----------------------------------------------|
B|-----------------------------------------------|
G|----------7-----------7------------------------|
D|---7------7-----9-----7------------------------| x4
A|---7------5-----9-----5------------------------|/
E|---5------------7------------------------------|

Stop...

E|-----------------------------------------------|
B|-----------------------------------------------|
G|------------7-------------7--------------------|
D|-----7------7------9------7--------------------| x4
A|-----7------5------9------5--------------------|/
E|-----5-------------7---------------------------|

Chitara 2

E|-----------------------------------------------|
B|-----------------------------------------------|
G|----9--------7------6------7-------------------|
D|----x--------x------x------x-------------------| x4
A|----7--------5------4------5-------------------|/
E|-----------------------------------------------|


E|-----------------------------------------------|
B|-----------------------------------------------|
G|----11--9---7---6------------------------------|
D|----x---x---x---x------------------------------| x2
A|----9---7---5---4------------------------------|/
E|-----------------------------------------------|

E|-----------------------------------------------|
B|-----------------------------------------------|
G|----9--------7------6------7-------------------|
D|----x--------x------x------x-------------------| x2
A|----7--------5------4------5-------------------|/
E|-----------------------------------------------|

Stop...


E|-----------------------------------------------|
B|-----------------------------------------------|
G|---9---7--6--7---9--7--6--7--------------------|
D|---x---x--x--x---x--x--x--x--------------------| x8
A|---7---5--4--5---7--5--4--5--------------------|/
E|-----------------------------------------------|

Vers:

Chitara 1

E|-----------------------------------------------|
B|----------------------------------------------| 
G|--------7---7-----------------7-------7-----7-|  
D|--7--7--9---7---x2---7---4--2--7----7--7--9--7-|   x2
A|--7--5--9---5--/-----7---4--2--5----7--5--9--5-|  /
E|--5-----7-----/------5---2--0-------5-----7----| /
|................................................|/


Chitara 2

E|-----------------------------------------------|
B|-----------------------------------------------|
G|-----------------------------------------------|
D|-----9-----9-----7-----7----6-----6-----7---7--| x8
A|-7-7---7-7---7-7---7-7---7-7--7-7---7-7--7-7---|/
E|-----------------------------------------------|

Bridge:

Chitara 1

E|-----------------------------------------------|
B|-----------------------------------------------|
G|---------9----------------------7--------------|
D|---------9----------------------7--------------| x2
A|---------7----------------------5--------------|/
E|-----------------------------------------------|

E|-----------------------------------------------|
B|-----------------------------------------------|
G|------7----------------------------------------|
D|--7---7---4---2--------------------------------| x4
A|--7---5---4---2--------------------------------|/
E|--5-------2---0--------------------------------|

Chitara 2

E|-----------------------------------------------|
B|-----------------------------------------------|
G|--9---11--13--14-------------------------------|
D|--x---x---x---x--------------------------------| x8
A|--7---9---11--12-------------------------------|/
E|-----------------------------------------------|

E|-----------------------------------------------|
B|---9---7----11---7---4-------------------------|
D|---x---x----x----x---x-------------------------| x2
A|---7---5----9----5---2-------------------------|/
E|-----------------------------------------------|


E|-----------------------------------------------|
B|-----------------------------------------------|
G|---9---7--6--7---9--7--6--7--------14~--------|
D|---x---x--x--x---x--x--x--x---x4----x----------|
A|---7---5--4--5---7--5--4--5--/------12~--------|
E|-----------------------------------------------|

Stop...

Chitara 1

E|-------5-----------10---------7----------10--5-|
B|-------5-----------10---------7----------10--5-|
G|-------6-----------11---------7----------11--6-|
D|-------7-----------12---------9----------12--7-| x2
A|----7----------12----------9----------12-----7-|/
E|-5---------10-----------7---------10---------5-|

Stop...


Chitara 1

E|-----------------------------------------------|
B|-----------------------------------------------|
G|----------7-----------7------------------------|
D|---7------7-----9-----7------------------------| x2
A|---7------5-----9-----5------------------------|/
E|---5------------7------------------------------|


Chitara 2

E|-----------------------------------------------|
B|-----------------------------------------------|
G|---9---7--6--7---9--7--6--7--------------------|
D|---x---x--x--x---x--x--x--x--------------------| x4
A|---7---5--4--5---7--5--4--5--------------------|/
E|-----------------------------------------------|

Outro:

Chitara 1

E|-----------------------------------------------|
B|-----------------------------------------------|
G|----------7-----------7------------------------|
D|---7------7-----9-----7------------------------| x2
A|---7------5-----9-----5------------------------|/
E|---5------------7------------------------------|

Chitara 2

E|-----------------------------------------------|
B|-----------------------------------------------|
G|---9---7--6--7---9--7--6--7------14~----------|
D|---x---x--x--x---x--x--x--x--x4---x------------|
A|---7---5--4--5---7--5--4--5-/-----12~----------|
E|-----------------------------------------------|

Chitara 3

E|-----------------------------------------------|
B|-----------------------------------------------|
G|---18---16---14--13-------14~-----------------|
D|---x----x----x---x----x4---x-------------------|
A|---16---14---12--11--/-----12~-----------------|
E|-----------------------------------------------|


~ = let it sound
|.....| = palm mute
x = muted

Pentru a putea vota sau adăuda comentarii, e nevoie să te autentifici sau înregistrezi .