Phoenix – In umbra marelui URSS

(39 voturi)

Contribuție:  johndoe


Melodie: In umbra marelui urs (cu ciupitura, ca vad ca se cere)
Transpunere: Dan Dragomir (adica eu)

ba...mie urechea mea bleaga imi zice ceva de genu: (acuma panatia nu vo mai scriu, 
ca va descurcati voi)

intro si strofa: | atentie la nota de sub linie

E|3--2223-0--------------------|----------0------------------2------|
B|3--3333-0--------------------|------------0------------------3----|
G|0--2222-0--------------------|-----0-------------------2----------|
D|0--0000-2--------------------|---2---2---------------0---0--------|
A|2--xxxx-2---0-2-3--3-2-0-----|---------------2-3-0-------------3-2|(nu faceti 
E|3--xxxx-0-3--------------3-2-|0-----------------------------------|pauza aici)
  G                             Em                  D                

|---------0----------------------|
|-----------1---------1----------|
|----2--------------0------------|
|--2---2-------------------------|
|0------------0-2-3-----3-2-0----|
|-----------------------------3-2| <- si treceti iara la Em, fara pauza
  Am              C             

dupa strofa se trece la refren (iarasi, fara pauza)...va scriu doar acordurile...
oricum nu e greu daca ascultai melodia...o sa va descurcati:

G  D  Em                             G    D   Em
          Caci timpul vostru s-a scurs
                               G     D     Em    
          In umbra marelui URSS
                               C       C/B        A 
          Dar ghearele v-au ramas sub orice-mbratisare
                    C     G         D           
          Astazi moare sarutul pe obraz .........si se repeta


dupa ce se termina refrenul, chiar la D-ul acela de final da bine chestia asta:

|-2----2----3-2-0-2-----|
|-3----3----3-3-3-3-----|
|-2----2----2-2-2-2-----|
|-0----0----0-0-0-0-----|
|-----------------------|
|--------------------3-2| <-si asa iar se trece direct la Em-ul de pe strofa

deci acorduri folosite:

           EADGBE
A:         x02220
C:         x32010
C/B:       x2x010
D:         xx0232
Dsus2:     xx0230
Dsus4:     xx0233
Em:        022000 
G:         320033

Rock  

Comentarii

Pentru a putea vota sau adăuda comentarii, e nevoie să te autentifici sau înregistrezi .