Andra – Ramai cu mine

(26 voturi)

Contribuție:  Bulla


      
      

e----------------------------------------------------------------------
b----------------------------------------------------------------------
g-------------10--12--------------8--10--b10(12)-10--8--b10(12)~~~~~~~~
d---------------------10~~---------------------------------------------
a--8--10--11--------------10--11---------------------------------------
E----------------------------------------------------------------------


e------------------------------------------------------9p8-------------
b----------------------------------b11(13)----b11(13)-------9----------
g--------10-h12--b12(13)--12--10-------------------------------8-------
d--8s10----------------------------------------------------------11----
a-------------------------------------------------------------------10-
E----------------------------------------------------------------------


e----------------------------------------------------------------------
b----------------------------------------------------------------------
g-------------------------------12-h13-h15---b15(17)---15p13---b15(17)-
d--------------------11-h13-h15----------------------------------------
a---------11-h13-h15---------------------------------------------------
E--13-h15--------------------------------------------------------------

Pop  

Pentru a putea vota sau adăuda comentarii, e nevoie să te autentifici sau înregistrezi .

Acorduri