printeaza

Fly Project – Musica

Contribuţie: Gabriel
Rating: ***** (2 voturi)
Ultima actualizare: 10.02.2012
e----------------------
B----------------------
G---14/17--16--16--17--     x3
D----------------------
A----------------------
E----------------------

e-------------------------------------
B-------------------16/18--18--17-----
G---11/13--13--13------------------17-
D-------------------------------------
A-------------------------------------
E-------------------------------------

e----------------------
B----------------------
G---14/17--16--16--17--     x3
D----------------------
A----------------------
E----------------------

adaugati la final 
e----------------------
B----------------------
G----14----------------  
D----------------------
A----------------------
E----------------------

Versuri:
e------------------------------------------------------------1p3--3--1-----------------
B---------1--1p3--1------1--1p3--1--------0--0p3--0--------1---------------------------
G--------2------------0---------------0------------------0-----------------------------  
D------2------------2---------------0------------------2-------------------------------
A---0-------------3----------------------------------3---------------------------------
E-------------------------------3------------------------------------------------------

e-------------------------------------------------------------------
B---------1--1p3--1---------1-1p3--1-----------------0--0p1-0-------
G-------2-----------------0------------------------0----------------
D-----2-----------------2-----------------------2-------------------
A---0-----------------3----------------------2------------------0---
E-------------------------------------------------------------------


 Nu stiu daca este 100% corect , dar suna destul de bine.
 Daca observati greseli mentionati :)
Etichete:

Acorduri