Colinde – O ce veste minunata

(80 voturi)

Contribuție:  anonime


N.C.  G    D   G    D        
O ce veste minuna-aată
       G   D     G   D
În Viflaim ni s-ara-aată
            
Astăzi s-a născut
G         D   G
Cel făr-de-nceput
D                 G
Cum au spus prorocii

Că la Viflaim Maria
Săvârşind călătoria
Într-un mic sălaş,
Lângă-acel oraş
A născut pe Mesia

Pe fiul în al său nume
Tată l-a trimis în lume
Să se nască,
şi să crească
Să ne mântuiască


                      G               D                 G
E |----------------|--------3-------|--------2-------|--------3-------|
B |----------------|--------0-------|--------3-------|--------0-------|
G |----------------|-----0-----0----|-----2-----2----|-----0-----0----|
D |--------0--0----|----------------|--0-------------|----------------|
A |----------------|----------------|----------------|----------------|
E |----------------|--3-------------|----------------|--3-------------|
           O  ce      ves   te         mi    nu         na    a


 D                                  G               D
--------2-------|--------2-------|--------3-------|--------2-------|
--------3-------|--------3-------|--------0-------|--------3-------|
-----2-----2----|-----2-----2----|-----0-----0----|-----2-----2----|
--0-------------|----------------|----------------|--0-------------|
----------------|--0-------------|----------------|----------------|
----------------|----------------|--3-------------|----------------|
  tă                     În Vif     la     im        ni    se-a


  G               D                                  G
--------3-------|--------2-------|--------2-------||-------3-------|
--------0-------|--------3-------|--------3-------||-------0-------|
-----0-----0----|-----2-----2----|-----2-----2----||o---0-----0----|
----------------|--0-------------|----------------||o--------------|
----------------|----------------|--0-------------||---------------|
--3-------------|----------------|----------------||-3-------------|
  ra   a           tă                                As    tăzi


 C      D          G                D     G          D
----------------|--------3-------|----------------|--------2-------|
----------------|--------0-------|----------------|--------3-------|
-----0-----2----|-----0-----0----|-----2-----0----|-----2-----2----|
--------0-------|----------------|--0-------------|--0-------------|
--3-------------|----------------|----------------|----------------|
----------------|--3-------------|--------3-------|----------------|
 s-a năs cut       Cel  făr        de-nce put        Cum   au



                   G
--------2-------|--------3-------|--------3------||
--------3-------|--------0-------|--------0------||
-----2-----2----|-----0-----0----|-----0-----0--o||
----------------|----------------|--0-----------o||
--0-------------|----------------|---------------||
----------------|--3-------------|---------------||
 spus pro ro      cii

**************************
N.C. înseamnă "No chord".

Crăciun  Colinde  

Ultima actualizare:  08.12.2012

Comentarii

Pentru a putea vota sau adăuda comentarii, e nevoie să te autentifici sau înregistrezi .

Acorduri