Ami – Playa en Costa Rica

(1 voturi)

Contribuție:  wemew


Intro:

e|-------------|----------------------------------|---------------------|
B|----4-5-5-4-5|----4-5-5-4-5-5-4-5-5-(5)7-4------|------4-5-4----------|
G|--6----------|--6--------------------------6-6-4|4-4-6------6-6-4-----|
D|6------------|6---------------------------------|----------------7-7-7|
A|-------------|----------------------------------|---------------------|
E|-------------|----------------------------------|---------------------|

e|-------------|----------------------------------|----------------|
B|----4-5-5-4-5|----4-5-5-4-5-5-4-5-5-(5)7-4------|----------------|
G|--6----------|--6--------------------------6-6-4|----4-4-6-4-----|
D|6------------|6---------------------------------|7-7--------7-7-6|
A|-------------|----------------------------------|----------------|
E|-------------|----------------------------------|----------------|

Timpi:    4    2   2
Armonie:     

Cuando me despierto
Quiero estar contigo, amor
Hasta que aparezca la luna
Cuando me pongo a dormir
Quiero tocar la guitarra
Hasta que la luna se aleja

Ahora tu me quieres, 
Y veo en tu mirada
Escuchame, no quiero
Ya no, no quiero nada
Soy como una cafe
Ven acá y llevame
Te quiero junto a mi 

Siempre yo me veo en tus brazos
Es como en una playa en Costa Rica
Playa en Costa Rica

Siempre lo que veo en tus ojos
Es el amor en una playa en Costa Rica
Playa en Costa Rica 

No me queda tiempo
Para demostrar mi amor
No me queda nada de perder
Y no hay nada mejor
Que estar contigo, amor
Tu y yo mirando la luna

Ahora tu me quieres, 
Y veo en tu mirada
Escuchame, no quiero
Ya no, no quiero nada
Soy como una cafe
Ven acá y llevame
Te quiero junto a mi 

Siempre lo que veo en tus ojos
Es el amor en una playa en Costa Rica
Playa en Costa Rica

Latino  

Pentru a putea vota sau adăuda comentarii, e nevoie să te autentifici sau înregistrezi .

Acorduri