Alternosfera – Spune-mi

Contribuție:  Teiu Alex


INTRO

  A5      Asus2     A5    Am        A5    Asus2     A5    Am

E----------------------------------------------------------------
B----------------------------------------------------------------
G-2-2-2-2-4-4-4-4---2-2-2-5-5-5-5---2-2-2-4-4-4-4---2-2-2-5-5-5-5
D-2-2-2-2-2-2-2-2---2-2-2-2-2-2-2---2-2-2-2-2-2-2---2-2-2-2-2-2-2
A-0-0-0-0-0-0-0-0---0-0-0-0-0-0-0---0-0-0-0-0-0-0---0-0-0-0-0-0-0
E----------------------------------------------------------------


Spune-mi
           A#sus2
Oare mai au un rost
            Csus2
Vorbe ce spuse-au fost
              E5
Vorbe ce te-au dat jos
             [tab]
Vorbe ce m-au dat

M-au dat jos



Zile
          A#sus2 
Zilele fug iar noi
           Csus2
Pietre cazute-n roi
              E5 
Suflete-n frig ochi goi
            [tab]
Inimi pierdute

Pierdute-n ploi



Am
Taram taram taram taram
A#sus2      F5  Am              X2
Taram taram tarutarudaram



Asus2     A#sus2  F5         D5        C5
     Colo unde cad din cer viori si fluturi
Asus2     A#sus2   F5     D5      C5
     Unde nu mai au sa-mi dea saruturi
Asus2       A#sus2  F5     D5       C5
     Unde-n ape     se, se-neaca pestii
Asus2         A#sus2     A#sus2  Am
     Nu vreau sa mai stau

[tab]

Spune-mi
           A#sus2
Oare mai au un rost
          Csus2
Vorbe fara folos
              E5
Vorbe ce ne-au dat jos
             [tab]
Noi am pierdut

Tot ce-a fost



Zile
          A#sus2
Zilele fug iar noi
          Csus2
Pietre cazute-n roi
              E5
Suflete-n frig ochi goi
           [tab]
Inimi pierdute-n

Pierdute-n ploi



Asus2     A#sus2  F5          D5        C5
     Colo unde cad din cer viori si fluturi
Asus2     A#sus2   F5      D5      C5
     Unde nu mai au sa-mi dea saruturi
Asus2       A#sus2  F5      D5       C5
     Unde-n ape     se, se-neaca pestii
Asus2         A#sus2  F5     D5
     Nu vreau sa mai  stau


Asus2     A#sus2  F5    D5
     Colo unde cad
Asus2     A#sus2   F5   D5
     Unde nu mai au
Asus2       A#sus2  F5     D5       C5
     Unde-n ape     se, se-neaca pestii
Asus2         A#sus2 A#sus2  A5       Asus2  A#sus2   F5  D5      Asus2
     Nu vreau sa mai stau    sa mai stau   sa mai stau    sa maï stau




 * oriunde am scris [tab] se canta rifful de la inceputul piesei
** mai exista mici variatii ale accentelor si acordurilor pe care poate nu am reusit sa le surprind aici


Acestea sunt acordurile originale ale piesei


   A5     Am   Asus2   A#sus2  Csus2    E5    F5    D5    C5

E------|-----|-------|-------|-------|-----|-----|-----|-----|
B------|-----|-------|-------|-------|-----|-----|-----|-----|
G---2--|--5--|---4---|---5---|---7---|--4--|-----|--7--|--5--|
D---2--|--2--|---2---|---3---|---5---|--2--|--3--|--7--|--5--|
A---0--|--0--|---0---|---1---|---3---|--2--|--3--|--5--|--3--|
E------|-----|-------|-------|-------|--0--|--1--|-----|-----|


Suna bine si cu aceste acorduri


   A5     Am   Asus2   A#sus2  Csus2    E     F     Dm    C

E------|--0--|---0---|---1---|---3---|--0--|--1--|--1--|--0--|
B------|--1--|---0---|---1---|---3---|--0--|--1--|--3--|--1--|
G---2--|--2--|---2---|---3---|---5---|--1--|--2--|--2--|--0--|
D---2--|--2--|---2---|---3---|---5---|--2--|--3--|--0--|--2--|
A---0--|--0--|---0---|---1---|---3---|--2--|--3--|-----|--3--|
E------|-----|-------|-------|-------|--0--|--1--|-----|-----|

Ultima actualizare:  15.04.2015

Pentru a putea vota sau adăuda comentarii, e nevoie să te autentifici sau înregistrezi .