Planeta Moldova – Invidia

Contribuție:  Volkane


[Capo/1]

Intro(x2) apoi in continuare pe parcursul melodiei

e| -------------------------------------------------------
B| -------------------------------------------------------
G| -------------------------------------------------------
D| ---0-2-0-----0---------0-2-0-----0---------------------
A| -3-------3-1---3-----3-------3-1---3~------------------
E| -----------------3-------------------------------------

                   
Ma uit in ochi la americani
   C                  Bb
Ma uit in ochi la engleji
   C                   Bb
Ma uit in ochi la frantuji si nemti
   C              Bb
Ma uit si la japoneji

    C                   Bb
La toti in suflet numai una vad
    C                   Bb
La toti in suflet numai una aud
    C                   Bb
La toti in suflet numai una simt
   C                  Bb
Invidia ca nu-s moldoveni.

[Bis cele 2 strofe de mai sus]

Refren(x2):
     C                     Bb
Si atata ma mandresc, si atata ma mandresc
     C                       Bb
Si atata ma mandresc si va spun
   C                        Bb
Decat englez or neamt, frantuz, american
     C                   Bb
Mai bine ‘ca mine’ moldovan.


[americanu’, englezu’, frantuzu’, neamtu’, japonezu']
[in paralel cu refrenul:]
e| ---------------------------------------1---------------
B| -4-4-4-1-2-2-1-2-1-----4-4-4-1-2-2-1-2---4-------------
G| -------------------3-----------------------------------

e| -------------------------------------------------------
B| -4-4-4-1-2-2-1-2-1-----------------1-2-3-4-------------
G| -------------------3-------------3---------------------


Refren(x3):...

[‘ca mine’ apare alternativ in refrene, de la primul fara]

Pentru a putea vota sau adăuda comentarii, e nevoie să te autentifici sau înregistrezi .

Acorduri