E.M.I.L. – Stari amare

(15 voturi)

Contribuție:  anonim220


C:  335553
E:  779997
Dm: xx0231
G:  320033

intro:    

             
Oare, ce sens are sa mai scriu
         
Despre relatii pierdute-n pustiu
                      
Nu e bine, nu, nu, nu e bine
Pana la 20 de ani,
Mi s-a parut un simplu joc
Visam si ma scufundam
In stari amare
Eu imi faceam din deprimare o stare
Chiar daca lumea nu avea culoare
Nu imi pasa, sau poate nu ma interesa

refren:


Important si normal e sa simti
Si nu-i firesc tu sa eviti
Tot ce e bun,
Daca ai stii ce simt acum
Crede-ma ca nu vreau sa te-nvat
Vezi si tu si eu ce se intampla
Miercuri sau joi
Nu e an fara nori, fara ploi


E||----------------------------|--------------------------|
B||----------------------------|--------------------------|
G||----------------------------|--------------------------|
D||---------5-------------5----|--0--2--3--2--0-----0-----|
A||---3--3---------(3)-3-------|-----------------3--------|
E||----------------------------|--------------------------|

E||----------------------------|--------------------------|
B||----------------------------|--------------------------|
G||----------------------------|--------------------------|
D||---------5-------------5----|--0--2--3--2--0-----0-----|
A||---3--3---------(3)-3-------|-----------------3--------|
E||----------------------------|--------------------------|

E||----------------------------|--------------------------|
B||----------------------------|--------------------------|
G||----------------------------|--------------------------|
D||---------7-------------7----|-----------7----------7---|
A||---5--5---------(5)-5-------|--5--5---------(5)-5------|
E||----------------------------|--------------------------|

E||----------------------------|--------------------------|
B||----------------------------|--------------------------|
G||----------------------------|--------------------------|
D||---------3-------------5----|--3--5--3--2--3--2--0-----|
A||---5--5----------5--5-------|--------------------------|
E||----------------------------|--------------------------|

x2


Nu intram si evitam o stare
Ce nu duce decat la disperare
Poate o sa intelegi
Ce usor este sa te pierzi
La sfarsit vreau doar sa iti zic
Sa incerci sa fi mai optimist
Decat esti acum
Si-o sa intelegi ce-ti spun...

Pop-Rock  

Pentru a putea vota sau adăuda comentarii, e nevoie să te autentifici sau înregistrezi .

Acorduri