Bucovina – Spune, tu, vant

(3 voturi)

Contribuție:  Liviu Mihail


Intro
----------------------
-0h1p0---0------------
-----------2---0-2----
-------------2-------- x4
-0--------------------
----------------------

Melodia poate fi cantata si cu fingerpicking

Am                 C               G               Em
--------------------------------------------------------------------
--1--------1-------1-------1--------0-------0--------0-------0------
------2------2---------0-----0----------0-----0----------0-----0----
----2---2------2-----2---2-----2------0---0-----0------2---2-----2--
--0----------------3----------------2----------------2--------------
--------------------------------------------------------------------

Am C G Em

Bataia: J JSJS J JSJS
  
                                         
Spune tu, vânt îngheţat, pe unde ai fost, pe unde-ai umblat
Am                  C                   G                Em
Prin codrii goi, pe munţi şi pe văi, pâraie-ngheţate sub sloiuri turbate

Am              C                 G               Em
Dacă-ai vazut pe unde-ai trecut, urme adânci, săpate în stânci
                                                         
Pe creste iernite în ape-oglindite, poteci neumblate să ducă departe. 

Cum zbori tu ca gândul şi-nconjuri pământul, şi treci peste mări, pustiuri şi zări
Nu-mi afli pierit, dorul cernit, cu dorul în gând nu-mi aflu mormânt. 

Spune tu, vânt îngheţat, pe unde ai fost, pe unde-ai umblat
Prin codrii goi, pe munţi şi pe văi, pâraie-ngheţate sub sloiuri turbate. 

Să caţi necurmat în lung şi în lat, din zori până-n noapte, aici şi departe
În soare şi-n stele, în bune şi rele, să nu te-odihneşti, să nu zăboveşti. 

Spune tu, vânt îngheţat, pe unde ai fost, pe unde-ai umblat
De mi-ai găsit dorul cernit, cu el în gand nu-mï aflu mormânt.

Metal  

Pentru a putea vota sau adăuda comentarii, e nevoie să te autentifici sau înregistrezi .

Acorduri