Bucovina – Spune tu, Vant (Intro)

(1 voturi)

Contribuție:  Hasu


Intro

Chitara 1

Am                 x4
---------------------
--0h1-0--------------
--------2---0-2------
----------2----------
--0------------------
---------------------

x2
---------------------------------------------------
--0h1-0----------3/5-3-1-1--1h3-1------------------
--------2---0-2-------------------4-4--0-2-2/4-4---
----------2----------------------------------------
--0------------------------------------------------
---------------------------------------------------

Apoi bataie pe Am C G Em  J JSJS J JSJS

Chitara 2

x6
----------------------------------------------------------
----------------------------------------------------------
----------------------------------------------------------
--2-2-------2------2-3-3/5-3-2-2--2h3-2-------------------
------5-3-5----3-5----------------------5-5--2-3-3/5-5----
----------------------------------------------------------

Metal  

Ultima actualizare:  01.05.2016

Pentru a putea vota sau adăuda comentarii, e nevoie să te autentifici sau înregistrezi .