Ștefan Hrușcă – Afară ninge liniștit

(47 voturi)

Contribuție:  anonime


Intro:

Chitara:

                                        
E||-------------0----|-------------0----|
B||-------0--------0-|-------0--------0-|
G||----1-----1-------|----1-----1-------|
D||------------------|------------------|
A||------------------|-2--------------L-|
E||-0--------------L-|------------------|

                     
-------------2----|-------------0----||
-------4--------4-|-------0--------0-||
----4-----4-------|----1-----1-------||
------------------|------------------||
-2--------------L-|------------------||
------------------|-0--------------L-||

Music Box:

                                          
E||--0------2--|--4------5--|--4------2--|--0------L--||
B||------------|------------|------------|------------||
G||------------|------------|------------|------------||
D||------------|------------|------------|------------||
A||------------|------------|------------|------------||
E||------------|------------|------------|------------||


               
Afară ninge liniștit
               
Și-n casă arde focul
                       
Iar noi pe lângă mama stând
               
Demult uitarăm jocul

În casă patul e făcut
Dar cine să se culce
Când mama spune de Isus
Cu glasul ei cel dulce

Cum s-a născut Isus în fân
În ieslea săracă
Iar boii peste el suflau
Căldură ca să-i facă

Și-au mai venit la el apoi
Păstorii de la stână
Și îngerii cântau în cor
Cu flori de crin în mână

Colinde  

Comentarii

Pentru a putea vota sau adăuda comentarii, e nevoie să te autentifici sau înregistrezi .

Acorduri