Pragu De Sus – El-Zorab

(2 voturi)

Contribuție:  Apollyon


INTRO & BRIDGE: Dm, C, A#, A
                Dm, A#, A, Dm

FLUIER:

E|----13--12--10-----------|
B|-10------------13--11-10-|
G|-------------------------|
D|-------------------------|
A|-------------------------|
E|-------------------------|

E|----13--12--10----------------------------------------|
B|-10------------13--11-10--10--------------------------|
G|------------------------------12--10--9--9--10--9-----|
D|--------------------------------------------------12--|
A|------------------------------------------------------|
E|------------------------------------------------------|

E|-------------------------------|
B|-10--10-------------------------|
G|--------12--10--9-9--10--9-----|
D|----------------------------12-|
A|-------------------------------|
E|-------------------------------|

INTRO

Dm
La paşa vine un arab, 
Cu ochii stinşi, cu graiul slab. 

                        A
- "Sunt, paşă, neam de beduin, 
Şi de la Bab-el-Manteb vin

                    Dm
Să vând pe El-Zorab. 

Dm
Arabii toţi răsar din cort, 
Să-mi vadă roibul, când îl port

                             A
Şi-l joc în frâu şi-l las în trap! 
Mi-e drag ca ochii mei din cap

                        Dm
Şi nu l-aş da nici mort. 

                            A
Ai mei pierduţi sunt, paşă, toţi:

                         Dm
O, mântuie-i, de vrei, că poţi! 

                        A
Dă-mi bani pe cal! Că sunt sărac! 
Dă-mi bani! Dacă-l găseşti pe plac, 

Dm
Dă-mi numai cât socoţi!

BRIDGE

         Gm             A
- "O mie de ţechini primeşti? 

                  Dm
- "O, paşă, cât de darnic eşti! 

         Gm               A
Mai mult decât în visul meu! 
Să-ţi răsplătească Dumnezeu, 

          Dm
Aşa cum îmi plăteşti!

FLUIER

                       Dm
Arabul ia, cu ochii plini
De zâmbet, mia de ţechini -

                            A
De-acum, de-acum ei sunt scăpaţi, 
De-acum vor fi şi ei bogaţi, 

               Dm
N-or cere la străini!

                    A
Copiii mei cum să-i îmbun

                    Dm
Nevestei mele ce să-i spun, 

                     A
Când va-ntreba de El-Zorab
Va râde-ntregul neam arab

           Dm
De bietul Ben-Ardun!

BRIDGE

          Gm               A
Se-ncruntă paşa: - "Eşti nebun?

              Dm 
Voieşti pe ianiceri să-i pun

           Gm         A
Să te de-a câinilor? Aşa! 
E calul meu, şi n-aştepta

           Dm
De două ori să-ţi spun!

                       Dm
- Al tău? Acel care-l crescu
Iubindu-l, cine-i: eu ori tu? 

                     A
De dreapta cui ascultă el, 
Din leu turbat făcându-l miel? 

               Dm
Al tău? O, paşă, nu!

FLUIER, apoi BRIDGE

       Gm               A
El scoate grabnic un pumnal, 

                 Dm
Şi-un val de sânge, roşu val

      Gm          A
De sânge cald a izvorât
Din nobil-încomatul gât, 

     Dm
Şi cade mortul cal.

A
Să-ntoarce-apoi cu ochi păgâni

                       Dm
Şi-aruncă fierul crunt din mâini:

                     A
- "Te-or răzbuna copiii mei! 
Şi-acum mă taie, dacă vrei,

        Dm 
Şi-aruncă-mă la câini!

Rock  

Ultima actualizare:  14.08.2016

Pentru a putea vota sau adăuda comentarii, e nevoie să te autentifici sau înregistrezi .