The Motans – Versus (intro)

(3 voturi)

Contribuție:  stanciu catalin


Intro
e|---------------------------------------|---------------------7p5-------------12--|
B|-----3h5------5------3h5---5p3---8p7---|-----3h5--5/7--7/8--------3h5--------12--|
G|---------------------------------------|-------------------------------------12--|
D|---------------------------------------|-----------------------------------------|
A|---------------------------------------|-----------------------------------------|
E|---------------------------------------|-----------------------------------------|


0:45-0:58
e|---------------------------------------|-----------------------------------|
B|-------0---------0----------0~---------|---------0---------0---------3~----|
G|-----0---0-----0---0-----0-------------|-------0---0-----0---0-----0-------|
D|---2---------0-------------------------|-----2---------0-------------------|
A|-----------------------3---------------|-------------------------3---------|
E|---------------------------------------|-----------------------------------|


Acorduri pre-rerfrern si refren
C: 8 10 10 9 8 8
D: 10 12 12 11 10 10 
Em: x 7 9 9 8 7
D*: x 5 7 7 7 5

C                                          D
Vara cu Jimi Hendrix, toamna cu Miles Davis
                              Em
La usa mea doar "room service"
                              D*
Astept macar o data sa vii tu, 

Sa-ti aduc aminte cum
       C
Mi-ai spus: "Denea poti sa sari din barca. 
D
Pentru ca si la mine sufletul o inceput sa arda. 
Em
Tu nu te teme, sari, iar eu sar dupa tine". 
D*
Aaaahhh, n-am stiut ca poti vasli atat de bine

Pop  

Ultima actualizare:  03.08.2017

Comentarii

Pentru a putea vota sau adăuda comentarii, e nevoie să te autentifici sau înregistrezi .