Spleet – Pierduti in Paradis

Contribuție:  Iani


INTRO

E|--------------------------------------
B|--------1-----------3-----------5-----
G|-----2-----2-----4-----4-----5-----5--  X3
D|--3-----------5-----------7-----------
A|--------------------------------------
E|--------------------------------------

E|------------------------------------------0-----
B|--------1-----------3-----------5---------0-----
G|-----2-----2-----4-----4-----5-----5------2-----
D|--3-----------5-----------7---------------2-----
A|------------------------------------------0-----
E|------------------------------------------0-----


Strofa 1

E|--------------------------------------------------------------------------------------------------------------------------------------------------------------
B|--------1-----------3-----------5-------------1-----------3-----------5-------------1-----------3----------------------------1-----------3-----------5--------
G|-----2-----2-----4-----4-----5------------2-----2-----4-----4-----5-------------2-----2-----4-----4-----5-----------------2-----2-----4-----4-----5-----------
D|--3-----------5-----------7-------------3-----------5-----------7--------------3-----------5-----------7------5--------3---3-----------5-----------7----------
A|--------------------------------------------------------------------------------------------------------------------------------------------------------------
E|--------------------------------------------------------------------------------------------------------------------------------------------------------------



Strofa 2

E|---------------------------------------------------------------------------------------------------------------------------------------------------------------------------------------------------------------------
B|--------1-----------3-----------5-------------1-----------3-----------5-------------1-----------3----------------------------1-----------3-----------5---------------------------------------------------------------
G|-----2-----2-----4-----4-----5------------2-----2-----4-----4-----5-------------2-----2-----4-----4-----5-----------------2-----2-----4-----4-----5------------------------------------------------------------------
D|--3-----------5-----------7-------------3-----------5-----------7--------------3-----------5-----------7------5--------3---3-----------5-----------7--------7-x-x-x-x---7-x-x-x-x---7-x-x-x-x---7-x-x-x-x---7-x-x-x-x
A|------------------------------------------------------------------------------------------------------------------------------------------------------------7-x-x-x-x---7-x-x-x-x---7-x-x-x-x---7-x-x-x-x---7-x-x-x-x
E|------------------------------------------------------------------------------------------------------------------------------------------------------------5-x-x-x-x---5-x-x-x-x---5-x-x-x-x---5-x-x-x-x---5-x-x-x-x

Refren

E|--------------------------------------------------------------------------------------------------------------------------------------------------
B|--------------------------------------------------------------------------------------------------------------------------------------------------
G|--------------------------------------------------------------------------------------------------------------------------------------------------
D|-3-3-3-3-3---5-5-5-5-5---7-7-7-7-7-7-7-7--5---3-3-3-3-3---5-5-5-5-5---7-7-7-7-7-7-7-7--5---3-3-3-3-3---5-5-5-5-5------7---5---3-------3---3---5--- se prelungeste ultima nota pana ce se intra pe lead
A|-3-3-3-3-3---5-5-5-5-5---7-7-7-7-7-7-7-7--5---3-3-3-3-3---5-5-5-5-5---7-7-7-7-7-7-7-7--5---3-3-3-3-3---5-5-5-5-5------7---5---3-------3---3---5---
E|-1-1-1-1-1---3-3-3-3-3---5-5-5-5-5-5-5-5--3---1-1-1-1-1---3-3-3-3-3---5-5-5-5-5-5-5-5--3---1-1-1-1-1---3-3-3-3-3------5---3---1-------1---1---3---


Inainte de strofa 2 (#)

E|--------------------------------------------------------------------------------------------------------------------------------
B|--------------------------------------------------------------------------------------------------------------------------------
G|--------------------------------------------------------------------------------------------------------------------------------
D|-----3-------5-------7---------------3-------5-------7---------------3-------5-------7---------------3-------5-------7----------
A|---3---3---5---5---7---------------3---3---5---5---7---------------3---3---5---5---7---------------3---3---5---5---7------------
E|-1-------3-------5-----7-5-3-----1-------3-------5-----7-5-3-----1-------3-------5-----7-5-3-----1-------3-------5-----7-5-3----


Lead ce se canta inainte strofa 2 impreuna cu #

E|-------------------------------------------------------------------------------------------------
B|-------------------------------------------------------------------------------------------------
G|-------------------------------------------------------------------------------------------------                             " ^ " = BEND COARDA IN SUS
D|-7-9-7-7-9-7------12-14-12-12-14-12---14-12-----7-9-7-7-9-9^-7------12-14-12-12-14-12---14-12----
A|-------------------------------------------14---------------------------------------------14-----
E|-------------------------------------------------------------------------------------------------


Strofa 2


E|---------------------------------------------------------------------------------------------------------------------------------------------------------------------------------------------------------------------------------------------
B|----------------------------------------------------------------------------------------------------------------------------------------------------------------------------------------------------------------------------------------------
G|----------------------------------------------------------------------------------------------------------------------------------------------------------------------------------------------------------------------------------------------
D|------3-------5-------7---------------3-------5-------7---------------3-------5---------------------3-------5-------7----------------3-------5----------------------3-------5-------7-x-x-x-x---7-x-x-x-x---7-x-x-x-x---7-x-x-x-x---7-x-x-x-x
A|----3---3---5---5---7---------------3---3---5---5---7---------------3---3---5---5-----5--3--------3---3---5---5---7---7------------3---3---5---5-------5--3-------3---3---5---5-----7-x-x-x-x---7-x-x-x-x---7-x-x-x-x---7-x-x-x-x---7-x-x-x-x
E|--1-------3-------5-----7-5-3-----1-------3-------5-----7-5-3-----1-------3----------7--5--1-----1-------3-------5-----7-5-3-----1-------3-----------7--5--1----1-------3-----------5-x-x-x-x---5-x-x-x-x---5-x-x-x-x---5-x-x-x-x---5-x-x-x-x


Refren

E|------------------------------------------------------------------------------------------------------------------------------------------------------
B|-------------------------------------------------------------------------------------------------------------------------------------------------------
G|-------------------------------------------------------------------------------------------------------------------------------------------------------
D|-3-3-3-3-3---5-5-5-5-5---7-7-7-7-7-7-7-7--5---3-3-3-3-3---5-5-5-5-5---7-7-7-7-7-7-7-7--5---3-3-3-3-3---5-5-5-5-5------7---5---3-------3---3---5--5-5-5-5
A|-3-3-3-3-3---5-5-5-5-5---7-7-7-7-7-7-7-7--5---3-3-3-3-3---5-5-5-5-5---7-7-7-7-7-7-7-7--5---3-3-3-3-3---5-5-5-5-5------7---5---3-------3---3---5--5-5-5-5
E|-1-1-1-1-1---3-3-3-3-3---5-5-5-5-5-5-5-5--3---1-1-1-1-1---3-3-3-3-3---5-5-5-5-5-5-5-5--3---1-1-1-1-1---3-3-3-3-3------5---3---1-------1---1---3--3-3-3-3


Solo (se canta cu tabulatura de pe refren)

E|------------------------------------------------------------------------------------------
B|-------------------------------------------------------------------------------------------
G|---5---5---7---7---7----9-10-9------------5---5---7---7---7--------------------------------
D|-7---7---9---9---9-------------10-7-----7---7---9---9---9-------10--9--7-------------------
A|-------------------------------------------------------------------------------------------
E|-------------------------------------------------------------------------------------------


E|----8----8----10----10----10-----12-13-12--------------------------------------------------
B|-10---10---12----12----12-----------------13-10----10----10----12----12----12-----13-12-10-
G|------------------------------------------------10----10----12----12----12-----------------
D|-------------------------------------------------------------------------------------------
A|-------------------------------------------------------------------------------------------
E|-------------------------------------------------------------------------------------------


Refren x2

E|------------------------------------------------------------------------------------------------------------------------------------------------------
B|-------------------------------------------------------------------------------------------------------------------------------------------------------
G|-------------------------------------------------------------------------------------------------------------------------------------------------------
D|-3-3-3-3-3---5-5-5-5-5---7-7-7-7-7-7-7-7--5---3-3-3-3-3---5-5-5-5-5---7-7-7-7-7-7-7-7--5---3-3-3-3-3---5-5-5-5-5------7---5---3-------3---3---5--5-5-5-5
A|-3-3-3-3-3---5-5-5-5-5---7-7-7-7-7-7-7-7--5---3-3-3-3-3---5-5-5-5-5---7-7-7-7-7-7-7-7--5---3-3-3-3-3---5-5-5-5-5------7---5---3-------3---3---5--5-5-5-5
E|-1-1-1-1-1---3-3-3-3-3---5-5-5-5-5-5-5-5--3---1-1-1-1-1---3-3-3-3-3---5-5-5-5-5-5-5-5--3---1-1-1-1-1---3-3-3-3-3------5---3---1-------1---1---3--3-3-3-3

Pop-Rock  

Pentru a putea vota sau adăuda comentarii, e nevoie să te autentifici sau înregistrezi .