Generic – S-a rupt lantul de iubire

Contribuție:  AndreiPara


E    -------------------------------------------------
B    --------------------------9--10----10--12--13--12
G    --9----9--11--12--11--12-------------------------
D    -------------------------------------------------
A    -------------------------------------------------
E    -------------------------------------------------


E    ------9--10----10--9--------------10-
B    --13------------------13--12--13-----
G    -------------------------------------
D    -------------------------------------
A    -------------------------------------
E    -------------------------------------


E    -------------------------------------
B    -12h13p12--10--12------10------------
G    -------------------12------11--12--9-
D    -------------------------------------
A    -------------------------------------
E    -------------------------------------

E    --------------------------------------------
B    -12--10--12-----------------------------10--
G    -------------11h12p11--9--11--12----12------
D    --------------------------------------------
A    --------------------------------------------
E    --------------------------------------------

E    -------------------------------------------------
B    ----------------------------10-------------------
G    -11h12p11--9--11--12----12------11h12p11--9--7--9
D    -------------------------------------------------
A    -------------------------------------------------
E    -------------------------------------------------


Acorduri solo: 
                           
                           


Strofa:
Em
   S-a rupt lantul de iubire
G
   Si-a-nceput a rugini
D
   Nu te mai gandi la mine
B7                  Em
Ce-a fost nu va mai fi           

x2


Refren:
Em             Am
   Impreun-am fost
D                  G      B7
  Ce mult ne-am iubit
Em             C    
   Ce pacat, fetito
B7                 Em
   Ca ne-am despartit

x2


Solo


Strofa:
Esti un mare vagabond
Vrei sa ma oftici de tot
Dar nu rabda inima
Cauta pe-altcineva

x2


Refren x2


Multe lacrimi cristaline
Am mai varsat pentru tine
Pentru tine, draga mea
Ca mi-ai frant inimioara

x2


Refren x2


Solo

Pentru a putea vota sau adăuda comentarii, e nevoie să te autentifici sau înregistrezi .

Acorduri