The Motans – Jackpot

Contribuție:  AndreiPara


Intro + parte din strofa:

E    --7-----------7-----------7-----------7-----8--7--
B    -----8--7--8-----8--7--8-----8--7--8-----8--------
G    --------------------------------------------------
D    --------------------------------------------------
A    --------------------------------------------------
E    --------------------------------------------------

E    --7-----------7-----------7-----------7-----------  
B    -----8--7--8-----8--7--8-----8--7--8-----8--7-----
G    -----------------------------------------------9--
D    --------------------------------------------------    
A    --------------------------------------------------
E    --------------------------------------------------

Acorduri intro:             


Strofa:
Em                         C                   G
   Mi-ai pus pe foaie note din care nu pot lua
Em                     C                       G
   Ai vrut liniste, ca sa te bagi cu basu-n ea
Em                        C                
Eu joc contra cronometru, tu preferi sa mergi in cercuri
G                             D/F#
Mi-ai pus limite, dar, scuze, prostii joaca dupa reguli
Em
Da, am tras de maner
C
Da, am vrut Jackpot
               
Dar am schimbat trei de sapte pe un foc


Bridge:
                      
   Incep sa ma aprind, fugi, cat stau si tac
Em                         D/F#
   Eu am trotil in suflet, tu, doar fluturi in stomac
Em                          C                     
M-am pornit sa te iubesc si nu ma mai opresc acum
G          
3, 2, 1, boom
       
             
Refren:
                         Em
Nu ai decat s-o arzi la greu
C                        G          D/F#
   Sa dai petreceri in sufletul meu
                      Em
Hai, da mai tare muzica
                 C                 G     D/F#
Cat eu ma uit in gol, culcat la podea

x2

Tot asa...

Strofa:
Ma inec in imposibil si sperante mlastinoase
Asteptand sa scoti raspunsul din cutia ta cu sanse
M-am desprins de soare sigur, ca n-am sa ma-ntorc acolo
Ca sa ma pierd in pacat, iarta-ma, tata Apollo

Incep sa ma aprind, fugi, cat stau si tac
Eu am trotil in suflet, tu, doar fluturi in stomac
M-am pornit sa te iubesc si nu ma mai opresc acum
3, 2, 1, tu

Refren:
Nu ai decat s-o arzi la greu
Sa dai petreceri in sufletul meu
Hai, da mai tare muzica
Cat eu ma uit in gol, culcat la podea

x2

Em 
   Imi spui ca totu-i cool
C
  Ca riscul este nul
G                     D/F#
  Vrei sa pun pe masa totul
G
  Deja nu ai de ce
C
  Draga, felicitari
G           
   Ai castigat Jackpot-ul


Refren:
Vreau sa vad cum o arzi la greu
Sa dai petreceri in sufletul meu
Hai, da mai tare muzica
Cat eu ma uit in gol, culcat la podea.

Pentru a putea vota sau adăuda comentarii, e nevoie să te autentifici sau înregistrezi .

Acorduri