Bucovina – Ultima Iarnă (intro)

Contribuție:  teodosie


E|--0---------------------------------------------------------2-----------------------------|
B|--0-------0--------0---1---0-------0------------------------3-----------------------------|
G|--0--------------------------2------------0---0h2---2---0---2-----------------------------|
D|--2---2-------2------------------------2--0-----------------0---4/5---5---4---------------|
A|--2---------------------------------------2-----------------------------------------------|
E|--0---------------------------------------3-----------------------------------------------|


E|--0---------------------------------------------------------2-----------------------------|
B|--0-------0-------0---1---0-------0-------------------------3-------------1---------------|
G|--0--------------------------2------------0---0h2---2---0---2---2/4---4-------------------|
D|--2---2-------2-----------------------2---0-----------------0-----------------------------|
A|--2---------------------------------------2-----------------------------------------------|
E|--0---------------------------------------3-----------------------------------------------|


E|--0---------------------------------------------------------2-----------------------------|
B|--0-------0-------0---1---0-------0-------------------------3-----------------------------|
G|--0--------------------------2------------0---0h2---2---0---2-----------------------------|
D|--2---2-------2-----------------------2---0-----------------0---4/5---5---4---------------|
A|--2---------------------------------------2-----------------------------------------------|
E|--0---------------------------------------3-----------------------------------------------|


E|--0----------------------------------------------0-----------0--------2-------0---2---0---|
B|--1-------1--------1---3---1---0---1-------------1---1---3-------3----3---3---------------|
G|--2-------------------------------------2--------0--------------------2-------------------|
D|--2---2-------2----------------------------------2--------------------0-------------------|
A|--0----------------------------------------0--2--3----------------------------------------|
E|------------------------------------------------------------------------------------------|

Metal  

Pentru a putea vota sau adăuda comentarii, e nevoie să te autentifici sau înregistrezi .