Bucovina – Stele Calauza (Guitar Pro)


Nu este perfect, dar in proportie de 80% as zice ca e similar cu originalul

Legend
h - hammer on/pull off
s - slide
~ - vibrato
M - palm mute



E |----------------------------------------------------|
B |----------------------------------------------------|
G |--7-----7--9--10----10----9--7--------7-----7--9----|
D |--------------------------------10------------------|
A |----------------------------------------------------|
E |----------------------------------------------------|


----------------------------------------------------|
----------------------------------------------------|
--10----10----9--7--------7-----------7-----7--9----|
--------------------10----------7-------------------|
----------------------------------------------------|
----------------------------------------------------|


----------------------------------------------------|
----------------------------------------------------|
--10----------7-----9-----7-----7--9--10----10------|
--------7-------------------------------------------|
----------------------------------------------------|
----------------------------------------------------|


--------------------------------------------------------------------------------
--------------------------------------------------------------------------------
--9-----7-----------------7-----------7-----------------------7--7--7--7--7--7--
--------------10----------------------------------------------------------------
--------------------------------------------------------------------------------
--------------------------------------------------------------------------------


--------------------|
--------------------|
9--9--10-10-10-10---|
--------------------|
--------------------|
--------------------|


--------------------------------------------------------------------------------
--------------------------------------------------------------------------------
--10-10-10-10-9--9--7--7--------------7--7--7--7--7--7--9--9--10-10-10-10-10-10-
--------------------------10-10-10-10-------------------------------------------
--------------------------------------------------------------------------------
--------------------------------------------------------------------------------


--------------------|
--------------------|
10-10-9--9--7--7----|
--------------------|
--------------------|
--------------------|


--------------------------------------------------------------------------------
--------------------------------------------------------------------------------
--------------7--7--7--7--------------7--7--7--7--7--7--9--9--10-10-10-10-------
--10-10-10-10-------------7--7--7--7--------------------------------------7--7--
--------------------------------------------------------------------------------
--------------------------------------------------------------------------------


--------------------|
--------------------|
------7--7--7--7----|
7--7----------------|
--------------------|
--------------------|


--------------------------------------------------------------------------------
--------------------------------------------------------------------------------
--9--9--9--9--7--7--7--7--7--7--9--9--10-10-10-10-10-10-10-10-9--9--7--7--------
--------------------------------------------------------------------------10-10-
--------------------------------------------------------------------------------
--------------------------------------------------------------------------------


--------------------|
--------------------|
------7--7--7--7----|
10-10---------------|
--------------------|
--------------------|


--------------------------------------------------------------------------------
--------------------------------------------------------------10----11----10----
--7--7--7--7--7-----------7-----9-----10----------12----------------------------
--------------------------------------------------------------------------------
--------------------------------------------------------------------------------
--------------------------------------------------------------------------------


--------------------|----------------------------------------------------|
--------------------|----------------------------------------------------|
12----10------------|--7-----7-----7--9--10-9--7-----7-----------7-------|
--------------------|-----------------------------10-------7-------------|
--------------------|----------------------------------------------------|
--------------------|----------------------------------------------------|


----------------------------------------------------|
----------------------------------------------------|
--7--9--10----7--9--10----9-----7-----7--9--10------|
----------------------------------------------------|
----------------------------------------------------|
----------------------------------------------------|


--------------------------------------------------------------------------------
--------------------------------------------------------------------------------
--10----------9-----7-----------------7-----------7h----------12-12-12-12-12-12-
--------------------------10----------------------------------------------------
--------------------------------------------------------------------------------
--------------------------------------------------------------------------------


--------------------|
--------------------|
12-12-12-12-12-12---|
--------------------|
--------------------|
--------------------|


--------------------------------------------------------------------------------
--------------------------------------------------------------------------------
--7-----9-----10----9-----7-----------7h----------12-12-12-12-12-12-12-12-12-12-
--------------------------------10----------------------------------------------
--------------------------------------------------------------------------------
--------------------------------------------------------------------------------


--------------------|
--------------------|
12-12h14-14-14-14---|
--------------------|
--------------------|
--------------------|


--------------------------------------------------------------------------------
--------------------------------------------------------------------------------
--14-14-14-14-14-14----------12-12-12-12-12-12-12-12-12-12-12-12----7-----9-----
--------------------------------------------------------------------------------
--------------------------------------------------------------------------------
--------------------------------------------------------------------------------


--------------------|----------------------------------------------------|
--------------------|----------------------------------------------------|
10----9-----7-------|-----7-----7--9--10----10h9h-7-----7-----7----------|
--------------------|--10----------------------------10------------------|
--------------------|----------------------------------------------------|
--------------------|----------------------------------------------------|


--------------------------------------------------------------------------------
--------------------------------------------------------------------------------
--7--7--7--7--7--7--7--7--7--7--12-12-12-12-12-12-12-12-12-12-7--7--7--7--7--7--
--------------------------------------------------------------------------------
--------------------------------------------------------------------------------
--------------------------------------------------------------------------------


--------------------|
--------------------|
7--7--7--7--12-12---|
--------------------|
--------------------|
--------------------|


--------------------------------------------------------------------------------
--------------------------------------------------------------------------------
--12-12-12-12-12-12-12-12-7--7--7--7--7--7--7--7--7--7--12-12-12-12-12-12-12-12-
--------------------------------------------------------------------------------
--------------------------------------------------------------------------------
--------------------------------------------------------------------------------


--------------------|
--------------------|
12-12-9-------------|
--------------------|
--------------------|
--------------------|


--------------------------------------------------------------------------------
--------------------------------------------------------------------------------
--9-----11----12----------12----------11----9-----------9-----------9-----------
--------------------------------------------------12----------------------------
--------------------------------------------------------------------------------
--------------------------------------------------------------------------------


--------------------|
--------------------|
7--7--7--7----------|
--------------------|
--------------------|
--------------------|


--------------------------------------------------------------------------------
--------------------------------------------------------------------------------
--7--7--7--7--7--7--12-12-12-12-12-12-12-12-12-12-7--7--7--7--7--7--7--7--7--7--
--------------------------------------------------------------------------------
--------------------------------------------------------------------------------
--------------------------------------------------------------------------------


--------------------|
--------------------|
12-12-12-12-12-12---|
--------------------|
--------------------|
--------------------|


--------------------------------------------------------------------------------
--------------------------------------------------------------------------------
--12-12-12-12-7--7--7--7--7--7--7--7--7--7--12-12-12-12-12-12-12-12-12-12-9-----
--------------------------------------------------------------------------------
--------------------------------------------------------------------------------
--------------------------------------------------------------------------------


--------------------|----------------------------------------------------|
--------------------|----------------------------------------------------|
------9-----11------|--12----12----11-9--------9-----7-------------------|
--------------------|--------------------12------------------------------|
--------------------|----------------------------------------------------|
--------------------|----------------------------------------------------|


----------------------------------------------------|
----------------------------------------------------|
-----7--9--10~---------9-----7-----7~----7~---------|
--7M----------------------------10------------------|
----------------------------------------------------|
----------------------------------------------------|


----------------------------------------------------|
-----------------8----------------------------------|
-----7--9--10----------10-9--7-----7~---------------|
--7M----------------------------10-------------7----|
----------------------------------------------------|
----------------------------------------------------|


----------------------------------------------------|
--------------------10s---13----11----------8s------|
--7--9--10----12------------------------------------|
----------------------------------------------------|
----------------------------------------------------|
----------------------------------------------------|


----------------------------|
--10-------11-8~------------|
----------------------------|
----------------------------|
----------------------------|
----------------------------|


----------------------------------------------------|
----------------------------------------------------|
-----7M-9M-10~---------9-----7-----7~----7~---------|
--7M----------------------------10------------------|
----------------------------------------------------|
----------------------------------------------------|


----------------------------------------------------|
-----------------8----------------------------------|
-----7M-9--10----------10-9--7-----7~---------------|
--7M----------------------------10-------------7----|
----------------------------------------------------|
----------------------------------------------------|


----------------------------------------------------|
--------------------10s---13----11----------8s------|
--7--9--10----12------------------------------------|
----------------------------------------------------|
----------------------------------------------------|
----------------------------------------------------|


----------------------------------------------------|
--10----------------10-11-10-8~---------------------|
----------------------------------------------------|
----------------------------------------------------|
----------------------------------------------------|
----------------------------------------------------|


----------------------------------------------------|
----------------------------------------------------|
-----9--11-12~---------11----9-----9~----9~---------|
--9M----------------------------12------------------|
----------------------------------------------------|
----------------------------------------------------|


----------------------------------------------------|
-----------------10---------------------------------|
-----9--11-12----------12-11-9-----9~---------------|
--9M----------------------------12-------------9----|
----------------------------------------------------|
----------------------------------------------------|


----------------------------------------------------|
--------------------12s---15----13----------10s-----|
--9--11-12----14------------------------------------|
----------------------------------------------------|
----------------------------------------------------|
----------------------------------------------------|


----------------------------|
--12-------13-10~-----------|
----------------------------|
----------------------------|
----------------------------|
----------------------------|


----------------------------------------------------|
----------------------------------------------------|
-----9M-11M12~---------11----9-----9~----9~---------|
--9M----------------------------12------------------|
----------------------------------------------------|
----------------------------------------------------|


----------------------------------------------------|
-----------------10---------------------------------|
-----9M-11-12----------12-11-9-----9~---------------|
--9M----------------------------12-------------9----|
----------------------------------------------------|
----------------------------------------------------|


----------------------------------------------------|
--------------------12s---15----13----------10s-----|
--9--11-12----14------------------------------------|
----------------------------------------------------|
----------------------------------------------------|
----------------------------------------------------|


----------------------------------------------------|
--12----------12-13-12-10~--------------------------|
----------------------------------------------------|
----------------------------------------------------|
----------------------------------------------------|
----------------------------------------------------|


----------------------------------------------------|
--12----12-10----10-12-------------12----12-10------|
--------------12----------12-------------------12---|
----------------------------------------------------|
----------------------------------------------------|
----------------------------------------------------|


----------------------------------------------------|
--10-12-------12M10M---10M12M10M--------------------|
--------------------12M---------12M10M12M11M9M-11M--|
----------------------------------------------------|
----------------------------------------------------|
----------------------------------------------------|


--------------------------------------------------------------------------------
--------------12----10----------10----------------------------------------------
--12M11M9M----------------12----------12----11----9-----------12----------9-----
--------------------------------------------------------------------------------
--------------------------------------------------------------------------------
--------------------------------------------------------------------------------


--------------------|----------------||
--------------------|----------------||
--------------------|----------------||
--------------------|----------------||
--------------------|----------------||
--------------------|----------------||

Metal  

Pentru a putea vota sau adăuda comentarii, e nevoie să te autentifici sau înregistrezi .

Acorduri