Byron – Cu sânge rece

Contribuție:  stefble


/ - slide up
 - slide down

Strofă:

e|-----10----------14--------10----------------|
B|--------------10-----------------------------|
G|--11-----9/11-----------11-----9/119--------|  X 2
D|---------------------------------------11----|
A|---------------------------------------------|
E|---------------------------------------------|

Refren:
   D(10)  F#m(9)  Bm(7)   F#m(9)
    x8     x8      x8      x8

e|--10------9-------7-------9-------------------|
B|--10-----10-------7------10-------------------|
G|--11-----11-------7------11-------------------|  x2
D|--12-----11-------9------11-------------------|
A|--12------9-------9-------9-------------------|
E|--10------X-------7-------X-------------------|

Solo:
    B   A    B   A    F#m F#m  A    B   A    B  A  C#
    x4  x2   x4  x2    x1  x3  x1   x4  x2   x4 x1 x1
e|---------------------------------------------------------|
B|--1210----1210------7---7/10----1210----1210/14------|
G|---------------------------------------------------------|  x2
D|---97------97-------4---4/7------97------97/11-------|
A|---------------------------------------------------------|
E|---------------------------------------------------------|

Strofă:

Peste tâmplă se scurge-un râu
Şi, domol, altul pe-obraz
Am un suflet mâncat pan' la brâu
De molii tremurând în extaz

Refren:

    D(10)                        F#m(9) 
Îmi vine să mă urc pe pereţii-n ruine
    Bm(7)                        F#m(9)
Iar tu mă priveşti impasibil şi taci
   D(10)               F#m(9)
În mine viaţa stă să leşine
     Bm(7)                      F#m(9)  
N-ai vrea măcar astăzi să te prefaci? 

Strofă:

Obosit de cuvinte alerg
Peste câmpuri de nervi speriaţi
Cu un colţ de-amintire-mi şterg
Obrajii de iude sărutaţi

Solo:

Refren:

    D(10)                        F#m(9) 
Îmi vine să mă urc pe pereţii-n ruine
    Bm(7)                        F#m(9)
Iar tu mă priveşti impasibil şi taci
   D(10)               F#m(9)
În mine viaţa stă să leşine
     Bm(7)                      F#m(9)  
N-ai vrea măcar astăzi să te prefaci? 

Outro:

D(10) F#m(9) Bm(7) F#m(9)  x2

Rock  

Ultima actualizare:  13.05.2019

Pentru a putea vota sau adăuda comentarii, e nevoie să te autentifici sau înregistrezi .