B.U.G. Mafia – In anii ce au trecut (Intro)

Contribuție:  Serjioo


E|------16--18--16--------------------------|
B|--18--------------18--18--18--18--18--18--|
G|------------------------------------------|
D|------------------------------------------|
A|------------------------------------------|
E|------------------------------------------|

E|--------------------------------------------------|
B|--18--18--18--18--18--16--20--20--20--18--16------|
G|----------------------------------------------17--|
D|--------------------------------------------------|
A|--------------------------------------------------|
E|--------------------------------------------------|

Prima data
E|------15--15--18--18--20------------------|
B|--------------------------18--16--18--20--|
G|--17--------------------------------------|
D|------------------------------------------|
A|------------------------------------------|
E|------------------------------------------|

A doua oara
E|------15--15--18--18--20------------------|
B|--------------------------18--16--18--20--|
G|--17--------------------------------------|
D|------------------------------------------|
A|------------------------------------------|
E|------------------------------------------|

E|--13--15--16--15--16--18--16--18--20--18--20--22--|
B|--------------------------------------------------|
G|--------------------------------------------------|
D|--------------------------------------------------|
A|--------------------------------------------------|
E|--------------------------------------------------|

Hip-hop  

Pentru a putea vota sau adăuda comentarii, e nevoie să te autentifici sau înregistrezi .