Florin Chilian – Intoarce-te cand dorm

(5 voturi)

Contribuție:  anonime


History: (12) - harmonics
          /5  - slide up to fret 5
          5  - slide down to fret 5
          3'' - let it ring
          s   - slide
          p   - pull-off
          h   - hammer
         4b5r4- bend 4 to 5 and release back to 4
          b   - bend
          x   - blocked strumming or slapping

Atentie: Acest tab este facut dupa varianta live.
         Pentru un sunet de studio va descurcati.


Intro si Versuri
e----0--0h1----0h1p0---------0---0h1----3----1p0-----0---0h1-----1---1p0------
b---3--3-------3---------3-----3---3-------3---3---------3---3--------3---3---
g--2--2-------3---------3-3--2---2-------3---3---------0---0--------0---0-----
d-0----------0---------------0------------0-----------------------------------
a----------------------------------------------------------3------------3-----
E-----------------------------------------------------------------------------

e--1111110-----0---------
b--3333333----3-3--3-----
g--2222222---2---2---2---
d-0------------0---------
a------------------------
E------------------------

               Fii cu mine,,,,,,,   maaa  trezesc..
e-----------------0------------0----------0-----------0-----------3------
b-----------------1------------1----------1-----------1-----------3------
g----------------0----0------0-----0---0----0------0----0--3-3----3------
d------------02-----2-22h3-----3-3-2----2-22h3----3-3-5-----5-5----------
a-0-0h2h3--3---------3--------------3-------3-------------5--------------
E------------------------------------------------------------------------

e--------0----------0-------------0------
b----3----------3------------1--------1--
g---3-3---3---3-3---3----0--0---0--0-----
d--3---3-----3---3-------2----2-----2----
a-1---------1-----------3-------------3--
E----------------------------------------


Refren
e-0--1--0---------------------------------------------------------------
b-1--1--1--1-0-----0h1p0------1---0----0h1-----0h1p0------1-0----0h1----
g-2--2--0--0-0----2--------2------2---2----------2--------2------2-2----
d-2--3--2--0-0---2----------2-----------2-------2-----------2---------2-
a-0--3--3--2-2--0-------------------------------0-----------------------
E------------3-3-----------------1--------------------------------1-----

Versuri :

Intind mana.. nu mai esti aici..
Voci din urma-mi spun
"N-ai de ce sa te ridici"-de ce sa te ridici??
Ea nu-i aici... intra-n sistem, vino, haide intra..
Inchid ochii... ma intorc in vis
Lumea nu e.. nu-i asa cum a promis...
Ma-ntorc la tine-n vis
Vino-n sistem, vino, haide intra...
Fii cu mine, fii atunci cand ma trezesc
N-am curaj de unul singur sa pasesc...
Intoarce-te in somn... intoarce-te cand dorm bis
Vino-n sistem, vino, haide, intra...
Vino-n sistem...

Fara chipuri-sunt doar un costum
Pune zgarda, esti deja pe drumul bun!
Vino-n sistem, vino haide intra...
Gesturi false-par sofisticati...
Gol in minte, gol in suflet, gol in ochii goi, ciudati...
Esti in sistem...
Vino-n sistem... vino, haide, intra...
Fii cu mine, fii atunci cand ma trezesc
N-am curaj de unul singur...
Sa pasesc...
Intoarce-te in somn...
Intoarce-te cand dorm... bis
Vino, haide intra in sistem...
Intoarce-te in somn..
Intoarce-te cand dorm...

Fara vise-n-ai neimpliniri...
N-ai sperante, n-ai dezamagiri, nu n-ai...
Esti in sistem, vino-n sistem, vino haide, intra...
Bai leguma, nu te revolta!
Ce idei, ce ganduri, stai cuminte
Stai in banca ta!
Esti in sistem, vino-n sistem...
Vino, haide intra...
Fii cu mine, fii atunci cand ma trezesc
N-am curaj de unul singur... sa pasesc
Intoarce-te in somn...
Intoarce-te cand dorm....
Intoarce-te cand dorm...

Blues  

Pentru a putea vota sau adăuda comentarii, e nevoie să te autentifici sau înregistrezi .