Folclor – Radu mamii (solo)

(12 voturi)

Contribuție:  anonim131


E  E  E  Q    E     E  E  E  E  Q       E  E  E  E  E  E   
E||-------------------|-------------------|--------------------|
B||-----------0-------|-----------0--0----|--1--3--3--1-----1--|
G||-----0--2----------|--0--2--2----------|--------------2-----|
D||--0-------------2--|-------------------|--------------------|
A||-------------------|-------------------|--------------------|
E||-------------------|-------------------|--------------------|


  Q    E  E  Q       H        E  E     E  E  E  E  E  E     E  E  E  E  E  E   
------------------|-----------------|--0--2--3--------0--|--0-----0-----------|
--3----1--1-------|-----------3--3--|-----------3--3-----|-----3-----3--1--0--|
-------------2----|--2--------------|--------------------|--------------------|
------------------|-----------------|--------------------|--------------------|
------------------|-----------------|--------------------|--------------------|
------------------|-----------------|--------------------|--------------------|


  E  E  E  E  E  E     E  Q    E  E  E     Q    H           E  E  E  E  E  E   
--------------------|-------------------|----------------|--------0--2--3-----|
--------------------|----------3--1--1--|--0-------------|--3--3-----------3--|
--2--2--0--------0--|--0--2-------------|-------0--------|--------------------|
-----------0--0-----|-------------------|----------------|--------------------|
--------------------|-------------------|----------------|--------------------|
--------------------|-------------------|----------------|--------------------|


  E  E  E  E  E  E     E  E  E  E  E  E     E  E  E  Q    E   
-----0--0-----0-----|--------------------|-------------------|
--3--------3-----3--|--1--0--------------|----------------0--|
--------------------|--------2--2--0-----|-----0--0--2-------|
--------------------|-----------------0--|--0----------------|
--------------------|--------------------|-------------------|
--------------------|--------------------|-------------------|


  E  E  Q    H          
----------------------||
----------------------||
--2--2--0----0--------||
----------------------||
----------------------||
----------------------||

Pentru a putea vota sau adăuda comentarii, e nevoie să te autentifici sau înregistrezi .