Pistol cu capse – In Locul Tau

(9 voturi)

Contribuție:  ghit razvan


Aceasta este tabulatura originala primita de la Dan Cozmuta,
chitarist la Pistol cu Capse...eu doar am transpus-o grafic :D


   INTRO

e  | ------------------------------------------------------|
B  | ------------------------------------------------------|
G  | -------7^6--------------------------------------------| 
D  | ---7---7-6---4----------------------------------------|
A  | ---7---5-4---4----------------------------------------|
E  | ---5---------2----------------------------------------|
  
   
   "^" - se leaga

   STROFA

e  | ------------------------------------------------------|
B  | ------------------------------------------------------|
G  | ------------------------------------------------------| 
D  | ---7------4-------------------------------------------|
A  | ---7------4-------------------------------------------|
E  | ---5------2-------------------------------------------|


   REFREN 

e  | ------------------------------------------------------|
B  | ------------------------------------------------------|
G  | ---7----9---------------------------------------------| 
D  | ---7----9----7----------------------------------------|
A  | ---5----7----7----------------------------------------|
E  | -------------5----------------------------------------|



                            
Inca o seara a mai venit, si nu stiu ce sa fac
                            
Astept langa telefon de-o ora poate ai uitat
                                  
As fi vrut sa ne-ntalnim de mult si sa iti spun ce simt
                                  
Atunci cand ma privesti sa stii ca nu pot sa te mint
                  
Si nici macar nu vreau...

 
Stau degeaba si privesc in gol ca un nebun
Cuvintele nu prea imi vin si nu stiu ce sa spun
Am incercat sa ma prefac si-am incercat s-ascund
Privirea ta ma da de gol nu mai stiu cine sunt


                         
Ref: Si-atatea vorbe fara rost
                           
     Ma fac sa ma simt ca un prost, nu-i nimic
                                                
     Si fiecare zi e asa-me-reu, as vrea sa fiu in locul tau...

 
In fiecare zi cand ma trezesc nu pot sa cred
Ca n-am curajul sa te sun si stiu c-am sa ma pierd
As vrea sa mai incerc macar odata un minut
Nu voi mai fi asa de trist nu stii ce ai pierdut

 
Ref: Si-atatea vorbe fara rost
     Ma fac sa ma simt ca un prost, nu-i nimic
     Si fiecare zi e asa mereu, as vrea sa fiu in locul tau... 
 
     Si-atatea vorbe fara rost, spuse de tine
     Ma fac sa ma simt ca un prost, nu-i nimic
     Si fiecare zi e asa mereu, as vrea sa fiu in locul tau...

Rock  

Ultima actualizare:  07.02.2010

Comentarii

Pentru a putea vota sau adăuda comentarii, e nevoie să te autentifici sau înregistrezi .

Acorduri