Folclor – Bade palarie noua

(37 voturi)

Contribuție:  rasgeado


Intro:

                                                  
E||------3--5-----5-----5--5--|--5-----3-----------3-----|
B||---6-----------------------|-----------6--5--6--------|
G||*--------------------------|--------------------------|
D||*--------------------------|--------------------------|
A||---------------------------|--------------------------|
E||---------------------------|--------------------------|

                                                     
-3---3--3--3----------|-------------------3--|--5---3-5-3---------|
----------------6--5--|--3--5--6----5--6-----|------------6-5-----|
----------------------|----------------------|-----------------5--|
----------------------|----------------------|--------------------|
----------------------|----------------------|--------------------|
----------------------|----------------------|--------------------|
                          
                    
-----------------||
-----------------||
--7--4--5-------*||
----------------*||
-----------------||
-----------------||


                                       
Bade palarie noua, tai di rai di rai di ram
                                               
Tu mi-ai rupt inima-n doua, tai di rai di rai di ram
                
Tu mi-ai rupt-o, tu mi-o coase,

Cu fir roSu de matase, 
           
Tai di ram, tai di rai di ram
                     
Tai di rai di rai di ram

Cand ma uit in urma ta, tai di rai di rai di ram
Mi se rupe inima, tai di rai di rai di ram
Cand te vad pe drum venind
Dorurile ma cuprind
Tai di ram, tai di rai di ram
Tai di rai di rai di ram

Badea-i om de omenie, tai di rai di rai di ram
Dar sarutul nu-l prea stie, tai di rai di rai di ram
Si ma roaga ziua toata,
Ca sa-l mai sarut odata,
Tai di ram, tai di rai di ram
Tai di rai di rai di ram
Eu-l sarut de nu mai pot
Dar el nu-nvata deloc, mai
Tai di ram, tai di rai di ram
Tai di rai di rai di ram

Pentru a putea vota sau adăuda comentarii, e nevoie să te autentifici sau înregistrezi .

Acorduri