Semnal M – Spune-mi cine ești

(23 voturi)

Contribuție:  rasgeado


Intro

                  G                           Bm
E||--7--7--8s--10--10---------|--7--7--8s--10--10---------|
B||---------------------------|---------------------------|
G||---------------------------|---------------------------|
D||---------------------------|---------------------------|
A||---------------------------|---------------------------|
E||---------------------------|---------------------------|

                 E                  E7
--7--7--8s--10--10----13----|--12----10----------------|
----------------------------|--------------13----12----|
----------------------------|--------------------------|
----------------------------|--------------------------|
----------------------------|--------------------------|
----------------------------|--------------------------|

              Am               D         D7          G
-------------------------|----------------------|---------------------||
--10----12----13---------|-----8---------7------|-----8---------------||
-------------------------|----------------------|---------------------||
-------------------------|----------------------|---------------------||
-------------------------|----------------------|---------------------||
-------------------------|----------------------|---------------------||

                          
Tu stai singură la geam şi afară plouă
                               
Îţi cuprinzi tâmplele calde cu mâinile-amândouă
                                    
şi aştepţi în noaptea grea, un gând bun de undeva
                                  
Să-ţi aprindă-n ochii negri prima stea

                                
Glasul ploii îţi şopteşte-acum un cântec trist
                                          
Tu nu ştii că eu te-aştept, tu nu ştii că exist
                              
Dar speranţa-mi va purta paşii cu puterea sa
                         
Către norul unde e fereastra ta

	Refren:

	              
	Spune-mi cine eşti
                      
	Spune-mi ce doreşti
                       
	Spune-mi dacă mă iubeşti
                                                 
	Spune-mi dacă vei veni-ntr-o zi în calea mea-aa

	              
	Spune-mi cine eşti
                     
	Spune-mi ce gândeşti
                       
	Spune-mi dacă voi afla
                                         
	Într-o bună zi şi drumul spre inima ta

Glasul ploii îţi şopteşte-acum un cântec trist
Tu nu ştii că eu te-ascult, tu nu ştii că exist
Dar speranţa-mi va purta paşii cu puterea sa
Către norul unde e fereastra ta

Tu stai singură la geam şi afară plouă
Îţi cuprinzi tâmplele calde cu mâinile-amândouă
şi aştepţi în noaptea grea, un gând bun de undeva
Să-ţi aprindă-n ochii negri prima stea

	Refren.

Pop-Rock  

Ultima actualizare:  01.01.2017

Pentru a putea vota sau adăuda comentarii, e nevoie să te autentifici sau înregistrezi .

Acorduri