Laurențiu Cazan – Say something

(18 voturi)

Contribuție:  anonime


                                                  

E||------------2----2----|--0----6h-7p-6-----2----|--2----0----6h-7p-6-----|
B||----------------------|----------------7-------|---------------------7--|
G||----------------------|------------------------|------------------------|
D||----------------------|------------------------|------------------------|
A||-------2--------------|------------------------|------------------------|
E||--2-------------------|------------------------|------------------------|



                                                           

--2----2----3----2----|--0----0--------------|-----------------||
----------------------|------------3----2----|--0--------------||
----------------------|----------------------|-------2/---4----||
----------------------|----------------------|-----------------||
----------------------|----------------------|-----------------||
----------------------|----------------------|-----------------||





This morning has following my thoughts


That didn't let me sleep the hole night



I would have to go somewhere on other roads



Because this road I took, I'm not so sure is right ... 


           
Say   something, 
                          
I wanna know what do you feel
                  
Cause you are driving my heart crazy !

Say something
Won't u know what I feel 
How long will u keep me so far away ?

This morning I begun to understand

That feelings can become so true

I wanna be for you more than just a friend

More than the others ... You call them friends too

Comentarii

Pentru a putea vota sau adăuda comentarii, e nevoie să te autentifici sau înregistrezi .

Acorduri