Trooper – Totul e fals

(2 voturi)

Contribuție:  anonime


Totul e fals (intro)


INTRO:

	

e------------------|     ------------------|     ------------------|
B------------------|     ------------------|     ------------------|
G----------7-------|(X2) ----------0-------|(X2) ----------4-------|
D------9-----9---9-|     ------2-----2---2-|     ------5-----5---5-|
A----9---9-----9---|     ----2---2-----2---|     ----5---5-----5---|
E--7---------------|     --0---------------|     --3---------------|
							


e------------------|     ------------------|     ------------------|
B----------5-------|     ------------------|     ------------------|
G--------6---6-----|     ----------7-------|     --------6-------4-|
D------7-------7---|     ------9-----9---9-|     ------7-------5---|
A----7-----------7-|     ----9---9-----9---|     ----7-------5-----|
E--5---------------|     --7---------------|     --5-------3-------|
						         

	
e------------------|     ------------------|     ------------------|
B----------3-------|     ----------5-------|     ------------------|
G------4-----4---4-|     ------6-----6---6-|     ----------7-------|
D----5---5-----5---|     ----7---7-----7---|     ------9-----9---9-|
A--5---------------|     --7---------------|     ----9---9-----9---|
E------------------|     ------------------|     --7---------------|
       						

e------------------|
B------------------|
G--------6-------4-|
D------7-------5---|
A----7-------5-----|
E--5-------3-------|
  	  

     Partile I si II se repeta ambele de 2 ori...dupa asta intra electrica
in actiune. Deocamdata doar atat. Daca o sa mai cante prin Iasi, o sa mai 
completez.

Rock  

Pentru a putea vota sau adăuda comentarii, e nevoie să te autentifici sau înregistrezi .

Acorduri