Verso – Vreau

(2 voturi)

Contribuție:  anonime


*** Avertisment: este prima mea melodie.. 
Asa ca nu dati cu barda dupa mine daca nu va place. 
Dati un mail cu o versiune mai buna sau alte corectari sau cautati-ma pe chat. 

e--------------------------------------------------------------------------------
B-----------------------------------------5------------------5--6--5-------------
A--7--5-----4--5--7--5--4----5-------4--5-----7--5--7-----------------7---5------
D--------------------------------------------------------------------------------
G--------------------------------------------------------------------------------
E--------------------------------------------------------------------------------

e-------------------------------------------5------------------------------------
B----------------------------------------5--------8--6--5-------------------------
A--7--5--------4--5--7--5--4--5--------------------------------------------------
D--------------------------------------------------------------------------------
G--------------------------------------------------------------------------------
E--------------------------------------------------------------------------------

*** Melodia curge pe doua chitari. Am scos acordurile separat pt fiecare...
*** La strofe, pe chitara 1, se ciupesc ultimele 4 corzi cate o data, crescator.

                             
e--------2------------1-----------3---
B------3------------0-----------0-----
G----2------------0-----------0-------
D--0------------0-----------0---------
A-------------------------------------
E-------------------------------------

[_Strofa_I_]

                         
Era o vreme in care ne iubeam, mai stii tu oare?
                              
Si-mi spuneai zambind sub soare ca nimic, nimic
                         
Nu va putea schimba ceva, nimic din lumea mea
                      
Dar nu a fost... nu a fost asa.

[_Bridge_]

Ma gandesc, ma gandesc numai la tine, la tine.


*** La refren pe chitara 1 (a solistului) puteti improviza asa:

e--0--3---3--3--5---3-3-3-------0--3--5--3--3--3-----0--3--5--3--3--3-------
B---------------------------------------------------------------------------

e--0--3----0--3--5--3--3--0--3--5--5--5--5--5--5-----3--1---1-----1---3-----
B----------------------------------------------------------3---------0---1--

[_Refren_]

Vreau sa te simt aproape
Sa fugim departe
Ocrotiti de noapte
Si vreau sa fim doar noi doi
Impreuna vom invinge
Timpul care a stat intre noi.

[_Strofa_II_]

Tu te-ai schimbat acum, nu poti sa crezi ce-ti spun
Incerc sa-ti amintesc ca nimic, nimic 
Nu va putea schimba ceva, nimic din vina mea
Tot ce sper e sa fii din nou a mea.

[_Bridge_]

[_Refren_]

Solo (mie asa imi suna desi vad ca solistul e undeva mai sus pe grif)
e-----------------------------------7--5-------5----5---7---8--------------------
B--------5-----8--6--5--6-----5--6----------8-----8------------------------------
A--5--7--------------------------------------------------------------------------
D--------------------------------------------------------------------------------
G--------------------------------------------------------------------------------
E--------------------------------------------------------------------------------

e--8------8------8-----7------7------7-----8------8------8-----7------7------7---
B----8--8---8--8---------8--8---8--8---------8--8---8--8---------8--8---8--8-----
A--------------------------------------------------------------------------------
D--------------------------------------------------------------------------------
G--------------------------------------------------------------------------------
E--------------------------------------------------------------------------------

[_Refren_]

*** Se repeta intro-ul in fade out.
*** Pe chitara 2 gasiti voi ritmul ascultand cu atentie melodia.
 Pana-mi vin altele mai bune, deocamdata folosesc acordurile astea..

_Strofa_I_]

                         
Era o vreme in care ne iubeam, mai stii tu oare?
                              
Si-mi spuneai zambind sub soare ca nimic, nimic
                             
Nu va putea schimba ceva, nimic din lumea mea
                      
Dar nu a fost... nu a fost asa.

[_Bridge_]

                                     
Ma gandesc, ma gandesc numai la tine, la tine.

[_Refren_]

                 
Vreau sa te simt aproape
      
Sa fugim departe
      
Ocrotiti de noapte
               
Si vreau sa fim doar noi doi
      
Impreuna vom invinge
                
Timpul care a stat intre noi.


Pop-Rock  

Pentru a putea vota sau adăuda comentarii, e nevoie să te autentifici sau înregistrezi .

Acorduri