Fără Zahăr – Sandu

(27 voturi)

Contribuție:  anonime


transpunere: mentor@go.ro

Intro

|---------------------------------|---------------------------------|
|--10----------10--10-------------|--10----------10--10-------------|
|------12--12----------12--12--9--|------12--12----------12--12--9--|
|---------------------------------|---------------------------------|
|---------------------------------|---------------------------------|
|---------------------------------|---------------------------------|


|----------------------|-----------------------|--------------------------------|
|----------------------|-----------------------|--------------------------------|
|--9h10h9--------------|-----------------------|--------------------------------|
|----------12------12--|-10-12-12b-12--12/-10--|-9--9-10--9--9-10--9------------|
|--------------12------|-----------------------|----------------------10--12--12|
|----------------------|-----------------------|--------------------------------|

Versuri

|-----------------------|-------------------------|
|-------1----------1----|-------1-----------------|
|-------2----------2----|-------2-----------------|
|-----------------------|-------------------3-----|
|--0-------0--0---------|--0-------0--2--3-----3--|
|-----------------------|-------------------------|


|-----------------------|-------------------------|
|-------1----------1----|-------1-----------------|
|-------2----------2----|-------2-----------------|
|-----------------------|-------------------------|
|--0-------0--0---------|--0-------0--2--3--2--0--|
|-----------------------|-------------------------|

Refren

|-----------------------|-------------------------------|
|--10---------10--------|--10----10--12--13--12--10--9--|
|--------9--------------|-------------------------------|
|-----------------------|-------------------------------|
|-----------------------|-------------------------------|
|-----------------------|-------------------------------|

|-----------------------|---------------------------|
|--10-------------------|---------------------------|
|--------9----9------9--|--7----7------7--9--7------|
|-----------------------|----------10-----------10--|
|-----------------------|---------------------------|
|-----------------------|---------------------------|

Comentarii

Pentru a putea vota sau adăuda comentarii, e nevoie să te autentifici sau înregistrezi .