Locomondo – Liubi, Liubi, I Love You

(28 voturi)

Contribuție:  Lalu


: 446644
:    466444
:    244222

Chitara ritm:  
                  

Solo Intro:
e-|--------------------------------------------------4-5-7-5-4-2-4-|
B-|-0h2-----2h4------5--5-5-7--5-----4h5-----5h7-------------------|
G-|-------------------------------6--------------------------------|

e-|-0-2-2h4-4-4-4--2-0-0h2-2-2-------------------------------|
B-|---------------------------------4-5-5h7-7-7--5-4-4h5p4-2-|
G-|----------------------------------------------------------|

e-|-4-7-4-2-0-2-2h4--------------------|
B-|---------------------2h4-4-4--2-0-2-|
G-|------------------------------------|

Pop  

Ultima actualizare:  19.04.2008

Comentarii

Pentru a putea vota sau adăuda comentarii, e nevoie să te autentifici sau înregistrezi .

Acorduri