Bitza – Balada cu feeling (skit)

(11 voturi)

Contribuție:  Lalu


                                                         
e-|---------0-----------------------------------0------------------1-|
B-|-------1---1-----1-1-1-3-3/5-3-1-0---------3---3-----3-3-3-5---3--|
G-|-----2-------2---------------------------1-------1------------2---|
D-|---2-----------------------------------2--------------------------|
A-|-0-----------------------------------2----------------------------|
E-|------------------------------------------------------------------|

                                    
e-|-1-1-1-3-3/5-3-1---0h1-0-----------------0-----|
B-|-------------------------3-1-0---------3---3---|
G-|-------------------------------------1-------1-|
D-|-----------------------------------2-----------|
A-|---------------------------------2-------------|
E-|-----------------------------------------------|

Pentru a putea vota sau adăuda comentarii, e nevoie să te autentifici sau înregistrezi .

Acorduri