Laska – Colind citadin

Contribuție:  anonime


e----------------------------------------------------------------------------------------
B-8--7--5--3---3/5\3--3~---3--5--3--7~----8--7--8/10-10~--10-8-7-7h8r7-5--8-7-5-8-7-5-3-
G---------------------------5--5---------------------------------------------------------

*** arpegiul pe strofe:

E||------------------0----|----------------------|-------0--------------|
B||-------------3---------|--3-------------------|--3---------3---------|
G||*-------2--------------|-------2---------2----|-----------------2----|
D||*--0-------------------|------------0---------|----------------------|
A||-----------------------|----------------------|----------------------|
E||-----------------------|----------------------|----------------------|


                                                                               
-----------------0----|----------------------|-------0---------------||------||
------------3---------|--3-------------------|--3---------3----------||------||
-------0--------------|-------0---------4----|-----------------4----*||------||
--0-------------------|------------0---------|----------------------*||------||
----------------------|----------------------|-----------------------||------||
----------------------|----------------------|-----------------------||------||

               
Frigu-nteapa in obraji
                
A-nceput iarna de azi
                  
Parul ti-a oprit un fulg
                           
As vrea sa-l mangai sau sa-l zmulg


     
Seara cade
                     
Si toata noaptea fi-va a mea
     
Focul arde
                              
Iubirea-mi danseaza prin fulgi de nea

	e------------------------
	B-8--7--5--3~---3-5-3~---
	G------------------------

Curge vinul cand se ciocnesc
Prieteni-mi toti sarbatoresc
Pe strada linistea rasuna
A-nghetat sarmana luna

Seara cade
Si toata noaptea fi-va a mea
Focul arde
Iubirea-mi danseaza prin fulgi de nea	x2

Cineva-n fereastra bate
Colindatori, deschide usa


A venit iarna-n ograda 
Si ne-a scos afara-n strada
Si-am venit sa va uram
Hei, hei

Caci am mere in desega
Am doar o chitara sparta
Si un fluieras din lemn de brad

Va uram cu bucurie
Ani multi fericiti sa fie
Si dup-aia inc-o mie
Hei, hei

Si de ne-ati primi in tinda
Cu oiada de colinda
Veselia pe toti sa ne prinda

Anul nou sa vie-n casa
Pe la gazda sanatoasa
Sa fie sorici pe masa
Hei, hei

Si de inca mai dormiti
Hai flacai, din bici pocniti
Si din zurgalai vestiti
He!

Colinde  

Pentru a putea vota sau adăuda comentarii, e nevoie să te autentifici sau înregistrezi .

Acorduri