Praf în Ochi – Parte din mine

(18 voturi)

Contribuție:  Lalu


Chitara acustica:

Intro + versuri + outro:
e-|-----------------|-----------------|-----------------|-------------------|
B-|-----------------|-----------------|-----------------|-----------0-------|
G-|-------0---------|---2---0---2-----|-------0---------|-------------0-----|
D-|---4-------4-----|-0---0-------0---|-----------0-----|-------0---0---0---|
A-|-2---2-------2-0-|---------------0-|---5---------5---|---4-------------4-|
E-|-----------------|-----------------|-3---3---------3-|-2---2-------------|

Chitara electrica:

Refren:

B5 D5 G5 F#5


Bataia pentru B5, D5 si G5
    j   s j s j   s j s j
e-|-------------------------|
B-|-------------------------|
G-|-X---X-X-X-X---X-X-X-X---|
D-|-X---X-X-X-X---X-X-X-X---|
A-|-X---X-X-X-X---X-X-X-X---|
E-|-------------------------|

Bataia pentru F#5
    j   s j s j   s j s j s j s
e-|-----------------------------|
B-|-----------------------------|
G-|-X---X-X-X-X---X-X-X-X-X-X-X-|
D-|-X---X-X-X-X---X-X-X-X-X-X-X-|
A-|-X---X-X-X-X---X-X-X-X-X-X-X-|
E-|-----------------------------|

   B5  D5  G5  F#5
e-|---|---|---|---|
B-|---|---|---|---|
G-|-4-|-7-|---|---|
D-|-4-|-7-|-5-|-4-|
A-|-2-|-5-|-5-|-4-|
E-|---|---|-3-|-2-|

Rock  

Ultima actualizare:  07.11.2008

Pentru a putea vota sau adăuda comentarii, e nevoie să te autentifici sau înregistrezi .