Nicu Alifantis – Aproape liniște

(16 voturi)

Contribuție:  rasgeado


Intro:

    Em*                      G7M/5+                     Em                     
E||--3-------------3----L--|--2---------------2----L--|---------------------|
B||----------0-------------|------------0-------------|----------0----------|
G||-------0-----0----------|---------0-----0----------|-------0-------------|
D||--2---------------------|--1-----------------------|--2----------/4------|
A||------------------------|--------------------------|---------------------|
E||------------------------|--------------------------|---------------------|


                                                    G7M/5+                   
--3-------------3----L--|--3-------------3----L--|--2---------------2----L--|
----------0-------------|----------0-------------|------------0-------------|
-------0-----0----------|-------0-----0----------|---------0-----0----------|
--2---------------------|--2---------------------|--1-----------------------|
------------------------|------------------------|--------------------------|
------------------------|------------------------|--------------------------|


  Em                       Em*                      Aadd9                   
------------------------|--3-------------3----L--|--5--------------5----L--|
----------0-------------|----------0-------------|-----------4-------------|
-------0----------------|-------0-----0----------|--------2-----2----------|
--2----------/4---------|--2---------------------|--4----------------------|
------------------------|------------------------|-------------------------|
------------------------|------------------------|-------------------------|


  Dsus2                         G                        Em*                    
--------------8-----------L--|--7-------------7----L--|--3-------------3----L--|
-----------5-----------------|----------0-------------|----------0-------------|
--------5--------------------|-------0-----0----------|-------0-----0----------|
--7--------------------------|--5---------------------|--2---------------------|
-----------------------------|------------------------|------------------------|
-----------------------------|------------------------|------------------------|


  C                        B7                       Em                     
--0-------------0----L--|--2-------------2----L--|--0-------------0----L--|
----------1-------------|----------0-------------|----------0-------------|
-------0-----0----------|-------2-----2----------|-------0-----0----------|
------------------------|------------------------|--2---------------------|
--3---------------------|--2---------------------|------------------------|
------------------------|------------------------|------------------------|


Em        G7M/5+           Em    
Norii-s de-argint şi zboară departe

Em        G7M/5+           Em
Cerul e-nalt, tăiat în cleştar,

Aadd9         Dsus2          G    Em
Noaptea-i o perdea şi-n fereastra mea

C              B7      Em
Doar umbre care-ncet dispar

Când nu eşti aici e camera goală
E timpul leneş, mult prea lung
Deloc nu mi-e somn şi-n loc să adorm
Încerc cu gândul să te-ajung

C               B     Em
Se înseninează cerul departe
C               B      Em
Ceaţa dispare ruptă în fâşii
C               B            Em
Străzile-s pustii dacă tu, dacă tu nu vii
C                 B        B7
Degeaba-ncepe, începe o nouă zi

Refren 2 ori:

C        B                B7
Nu te-ndepărta, nu mă mai lăsa 
                Em
Singur să te-astept,
C          B           B7
Nu te răzgândi, nu mă ocoli, 
        Em
Nu mai fugi.

Em            B7            Em
şi e liniste iar aproape de mine
Em            B7        Em
Prea triste visele îmi sunt,
Adim           Am             Em*              Em
De ce nu eşti aici să-ţi pot vorbi, să-mi poţi vorbi
C          B7        Em
S-apropii cerul de pământ

şi e liniste iar aproape de mine
De ce n-auzi chemarea mea,
Te strig mereu, te strig în gând
şi e inima mea ca un ceas bătând

Se înseninează cerul departe
Ceaţa dispare ruptă în fâşii
Străzile-s pustii dacă tu, dacă tu nu vii
Degeaba-ncepe, începe o nouă zi

Refren 2 ori

Nu te-ndepărta, nu mă mai lăsa 
Singur să te-astept,
Nu te răzgândi, nu mă ocoli, 
Nu mai fugi.


Em*  Em    G7M/5+  B7   G   Aadd9 Dsus2 G  Adim

-3-  -0-    -2-   -2-  -3-  -5-   -8-  -7-  -2-
-0-  -0-    -0-   -0-  -0-  -4-   -5-  -0-  -1-
-0-  -0-    -0-   -2-  -0-  -2-   -5-  -0-  -2-
-2-  -2-    -1-   -1-  -5-  -4-   -7-  -5-  -1-
-2-  -2-    -x-   -0-  -x-  -2-   -5-  -x-  -0-
-0-  -0-    -x-   -x-  -x-  -x-   -x-  -x-  -x-

Folk  

Ultima actualizare:  19.01.2019

Pentru a putea vota sau adăuda comentarii, e nevoie să te autentifici sau înregistrezi .