Millenium – Fata Sihastra

(18 voturi)

Contribuție:  anonime


(primul meu tab asa ca...astept corectii sau comentarii pe al3xu_06@yahoo.com)

Intro:  
|0---0----------------------------1--1----1-------------3----1-------------
|1---0-1h-0p-1h-0p-1h-0p---1--1----1-----1---------------------------------
|0---0----------------------------2--2----2---------2----------------------
|2---2----------------------------3--3----3--------------------------------
|3---3----------------------------3--3----3------------------------3----0--
|0---0----------------------------x--x----x--------------------------------

|0---0----------------------------1--1----1--------------------------------
|1---0-1h-0p-1h-0p-1h-0p---1--1----1--------------------------------
|0---0----------------------------2--2----2--------------------------------
|2---2----------------------------3--3----3--------------------------------
|3---3----------------------------3--3----3--------------------------------
|0---0----------------------------x--x----x--------------------------------

I:
                                                 
S-a trezit din somnul ei tresarind
                    
Si indata intelese, n-are mai nimic
              
I-au furat tot ce-a avut
  
Si acum singura in strada
              
Sta si ii e frig.

Cand se lasa inserarea 

Ea pe nimeni nu are
                          
Si ratacind ca un strain ei adesea ii se pare
                         
Ca soarele mai des apune decat rasare
       
Chiar de e frig afara
             
Si de-i foamea o povara
                
Chipul ei ratacitor zboara usor.

II:
                                                           
O vedeam in orice zi cand priveam pe fereastra
                       
Hoinarea ca un un copil naiv
                                          
Ieri am asteptat s-o vad insa fata sihastra n-a maI venit

Ma intreb unde-i oare

Poate cauta drumul spre soare
                           
Si ratacind ca un strain ei adesea i se pare
                            
Ca soarele mai des apune decat rasare
         
Chiar de e frig afara
          
Si de-i foamea o povara
                 
Chipul ei ratacitor zboara usor.

                           
Si ratacind ca un strain ei adesea ii se pare
                                    
Ca soarele mai des apune decat rasare
                                            
 Azi am inteles de ce ochii mari si blanzi ai fetei
                    
Reflectau cu dragoste soarele. 


                           
Si ratacind ca un strain ei adesea ii se pare
                                   
Ca soarele mai des apune decat rasare
                                            
 Azi am inteles de ce ochii mari si blanzi ai fetei
                     
Reflectau cu dragoste soarele.

Comentarii

Pentru a putea vota sau adăuda comentarii, e nevoie să te autentifici sau înregistrezi .

Acorduri