Nicu Alifantis – Postalionul

(9 voturi)

Contribuție:  rasgeado


Ciupitura:
 
                    
E||-----------------------|-------------------------------|
B||-----------------------|-------1------1------1---------|
G||-----------------------|-----0------0------0-----------|
D||-----------------------|-----------------------0h-2-0--|
A||--------------------2--|--3-------------3--------------|
E||-----------------3-----|---------3---------------------|


-------------------------------|------------------------------|
-------1------1------1---------|-------1------1------1------1-|
-----0------0------0-----------|-----0------0------0------0---|
-----------------------0h-2-0--|------------------------------|
--3-------------3--------------|--3-------------3-------------|
---------3---------------------|---------3-------------3------|


------------------------------||
-------1------1------1------1-||
-----0------0------0------0---||
------------------------------||
--3-------------3-------------||
---------3-------------3------||



                                 
Diseară poştalionul va trece prin strâmtoare
                                    
Iar noi îl vom surprinde la locul cunoscut
                                     
Întocmai ca pe vremea când mânuiam topoare
                                    
Sau flinte ghintuite, întocmai ca-n trecut

Nu ca să punem mâna pe călătoarea blondă
Ce tremură şi-şi vâră colierul între sâni
Nu ca să zmulgem fetei inelul de logodnă
Vom răsuci diseară pistoalele în mâini

Un lucru mult mai nobil prieteni astă seară
Aduce poştalionul şi mai de preţ de cât
O călătoare blondă, subţire sau sprinţară
Ori saci cu bani de aur, umpluţi până la gât


Diseară poştalionul aduce-un domn de seamă
                                     
Un călător de vază, şi-un hoţoman de soi
                                   
Aduce timpul, domnul pe care nici o vamă
                                 
Nu l-ar putea vreodată întoarce înapoi

Aşa că nu vă temeţi de el, va fi o luptă
Din cele mai uşoare iar de-l vom prinde-n laţ
În pânza veşniciei, de astă dată ruptă
Noi dintre toţi tâlharii vom fi cei mai bogaţi

Iar de vom pune mâna pe el şi pe comoară
Ne-am pricopsit prieteni cum nu ne-am aşteptat
Iar de vom pune mâna pe el în astă seară
I-am dat o lovitură cum încă nu s-a dat

Folk  

Comentarii

Pentru a putea vota sau adăuda comentarii, e nevoie să te autentifici sau înregistrezi .

Acorduri