Țapinarii – Protest

(6 voturi)

Contribuție:  anonim314


                                
Printeso, in cate paturi vei mai cauta iubirea? 
                                
In mintea ta complicata nu vei gasi fericirea! 
Am o singura arma, e autonomia mea 
Mi se pare mie sau ti-e frica de ea? 

Un inger si un demon in dreapta mea 
O poza cu tine se naste, e toata ura ta 
Developeaza realitatea, preschimb-o-n neant 
Cu banii ramasi poate-ti iei un trabant 

La cat te-ai gandit oare ai bani de paine? 
O sa strangi cureaua pentru ziua de maine 
E iubire sau ura ce-mi arati tu acum? 
Sau pur si simplu e doar un alt drum? 


                                
Ref: Oare ai 12 ani, oare mai esti cuminte 
                                         
Gradinita te-asteapta, pana-ti creste un dinte 
                             
Adu-ti aminte un singur vers, de perspectiva 
                                   
Ea, avea o frunte....era foarte masiva 

Oare te mai doare inca, oare mai cazi plangand? 
Incerci sa zbori dar ramai pe pamant 
Orgoliul din tine nu te face sa plutesti 
Asa ca stai si reinventezi povesti 

Oare mai poti sa zbori cand stii prea bine 
Ca n-ai castigat inca lupta cu tine? 
Nu te speria de un alt capat de drum 
Te vei pierde iar printre norii de fum 

Aprinde-ti o tigara, gandeste-te intens 
Incrunta-ti fruntea aia poate gasesti vreun sens 
In tot ce faci tu si in tot ce crezi 
De atatea lacrimi nu poti sa mai vezi 

Ref 

Asa ca, iata, asta-i razboiul tau cu tine 
Oricat ai crede tu ca te lupti cu mine 
E o minciuna undeva in tot acest joc 
Si stii ca acuma e doar un prolog 

Inchei protestul calare pe vise 
Credeam ca iubirea ma prostise 
Iti spun ca iubirea ni s-a transformat in ura 
Asta e soarta noastra si tot ea ne fura 

Ref

Ciupitura ar fi ceva de genul asta:

-----------------------1----------------------3-----|
--------------------------3---------------------3---|
----0-----0------2----------2-----------0---------0-|
----------------------------------------------------|
3-----2-----0------0----------0---0~2-----2---------|
----------------------------------------------------|

|------------------------------1------------
|--------------------------------1----------
|--------0--------0--------2--------2-------
|------0--------0---------3-----------3-----
|----3-----3---2----2---3-------------------
|-------------------------------------------

si ar mai fi si chitara a2-a dar imi e lene sa o fac tot gen tab asa ca o trec asa.
sper sa va prindeti cum e.:

e: 4.6.7...7~9.5~7.2~3...4.6.7...7~9.5~7.2~3 printeso-n
 <..>,,4.6.7.6.7.9...4.6.4.....4.6.7.6.7.9...6~7...

Folk  

Comentarii

Pentru a putea vota sau adăuda comentarii, e nevoie să te autentifici sau înregistrezi .

Acorduri