O-zone – Oriunde ai fi (power chords + solo)

(7 voturi)

Contribuție:  Francisc Boicu


Pe versuri acordurile sunt asa. Sunt fain pe power chords fara sa fie lovite
 pur si simplu agatate si trase in sus, cu bend.
 

---------------------|---------------------|---------------------|
---------------------|---------------------|---------------------|
---------------------|--(6)----------------|---------------------|
--(2)----------------|--(6)----------------|--(4)----------------|
--(2)----------------|--(4)----------------|--(4)----------------|
--(0)----------------|---------------------|--(2)----------------|

---------------------|---------------------|---------------------|
---------------------|---------------------|---------------------|
--(7)----------------|---------------------|--(6)----------------|
--(7)----------------|--(2)----------------|--(6)----------------|
--(5)----------------|--(2)----------------|--(4)----------------|
---------------------|--(0)----------------|---------------------|

---------------------|---------------------|---------------------|
---------------------|---------------------|---------------------|
---------------------|--(7)----------------|---------------------|
--(4)----------------|--(7)----------------|--(2)----------------|
--(4)----------------|--(5)----------------|--(2)----------------|
--(2)----------------|---------------------|--(0)----------------|

---------------------|---------------------|---------------------|
---------------------|---------------------|---------------------|
--(6)----------------|---------------------|--(7)----------------|
--(6)----------------|--(4)----------------|--(7)----------------|
--(4)----------------|--(4)----------------|--(5)----------------|
---------------------|--(2)----------------|---------------------|

---------------------|---------------------|-------------------|
---------------------|---------------------|-------------------|
---------------------|--(6)----------------|-------------------|
--(2)----------------|--(6)----------------|-------------------|
--(2)----------------|--(4)----------------|-------------------|
--(0)----------------|---------------------|-------------------|


Solo
prima parte: in Re minor si Do diez minor. 


---------------------|
---------------------|
-----------6\--------|
---------------------|
---------------------|
---------------------|

--------------------------|--------5----5~--------|--L----------------------|
--------------------7~----|--7~-------------------|-----x-9b--------L-5~----|
--------6~----6~----------|-----------------------|-------------------------|
--7~----------------------|-----------------------|-------------------------|
--------------------------|-----------------------|-------------------------|
--------------------------|-----------------------|-------------------------|

------------------------|---------------------------|------------------------|
--5~--------------------|---------------------------|------------------------|
--------6~----6~--------|--4--6--6~--4--6~----4--6--|--7---------<>7--7--6-4-|
------------------------|---------------------------|--7---------------------|
------------------------|---------------------------|------------------------|
------------------------|---------------------------|------------------------|

---------------------------|--19br---|
---------------------------|---------|
--6--4~----4---------------|---------|
--------------6--4~--------|---------|
-----------------------4-2-|---------|
---------------------------|---------|

-------|-------|--9b----------------|--L----------------|
-------|-------|--------------------|-------------------|
-------|-------|--------------------|-------------------|
-------|-------|--------------------|-------------------|
-------|-------|--------------------|-------------------|
-------|-------|--------------------|-------------------|

a doua parte

--12b--------12b--------|-------------12pbr--------|--9~----------------|
------------------------|-------12-----------------|--------------------|
------------------------|--------------------------|--------------------|
------------------------|--------------------------|--------------------|
------------------------|--------------------------|--------------------|
------------------------|--------------------------|--------------------|


-----------------------------12b--|--L-----------------|
-----14--17--14--17--14--14-------|--------------------|
----------------------------------|--------------------|
----------------------------------|--------------------|
----------------------------------|--------------------|
----------------------------------|--------------------|

--19~----------------------|---------------------|--------------------|-------|
-------------12~----10--9--|--L--------10--------|--7~----------------|-------|
---------------------------|---------------------|--------------------|-------|
---------------------------|---------------------|--------------------|-------|
---------------------------|---------------------|--------------------|-------|
---------------------------|---------------------|--------------------|-------|

Pentru a putea vota sau adăuda comentarii, e nevoie să te autentifici sau înregistrezi .