Nicu Alifantis – Umbra (ciupitura)

(20 voturi)

Contribuție:  Bogdan Alin


Intro:

                                        <------
E||------0----------0-----------2--------3--2-L----   |
B||-----0---0------1---1-------3---3---------------   |
G||----0------0---0------0----2------2-------------   |
D||--------------------------0-----------2--1-L----   |
A||--------------3---------------------------------   |
E||--0---------------------------------------------   |
                                                      |
                                                |
E||------0----------0-----------2-----------3------   |
B||-----0---0------1---1-------3---3-------0---0---   |
G||----0------0---0------0----2------2----0------0-   |
D||--------------------------0---------------------   |
A||--------------3---------------------------------   |
E||--0-----------------------------------3---------   |
                                                      |                                           
                                                 |
E||------2----------0-----------0-----------0------   |
B||-----0---0------0---0-------0---0-------0---0---   |
G||----2------2---0------0----0------0----0------0-   |
D||------------------------------------------------   |
A||--2---------------------------------------------   |
E||-------------0----------0------------0----------   |
                                                      |
                                                  |
E umbra aceasta pe care                               |
                        <-- este faza de mai sus--
O semeni în sufletul meu
                   
Cu milă şi tristă mirare
                    
Voi duce-o cu mine mereu
                   
Voi duce-o cu mine mereu


şi-apoi intr-o zi oarecare,
În care-mi va fi cel mai greu
Voi pune-o în vechi calendare,
Duminica trupului meu, 
Duminica trupului meu.


Refren 2 ori


              
Fiori prin mine umblă,
              
şi nu am trebuintă,
              
Te rog pe tine umbră 
            
Sa redevii fiinţă


Flămând de iubirea întreagă
Pe vremi cu-amurg mohorât
Când zorile noaptea-şi dezleagă
Mă satur cu-o umbră şi-atât,
Mă satur cu-o umbră şi-atât


şi sufletul meu te mai roagă
Magnetic catarg doborât
Tu umbră tăcută şi dragă
Aşează-ţi fularul la gât,
Aşează-ţi fularul la gât,


Refren 2 ori


O umbra se-nchide in mine,
O umbra prin mine trecu,
I-atata de rau ca e bine,
I-atat de mult daca e nu
I-atat de mult daca e nu. 


Bacovia-si iese din sine
Si rade in "a" si in "u"
O umbra in viata ma tine
Si umbra aceea esti tu
Si umbra aceea esti tu


Refren 2 ori

...succes!

Ultima actualizare:  15.05.2008

Comentarii

Pentru a putea vota sau adăuda comentarii, e nevoie să te autentifici sau înregistrezi .

Acorduri