Clubul Phoenix TIM Făget – Cantec de dragoste

(19 voturi)

Contribuție:  Toppy


cantec de dragoste (c.t.m. Phoenix-Tim Faget)

  muzica: Topor silviu, versuri: Popa Pamela

   Strofa:     
                                                
E||--------------3-----------|--------------2h-0--------|
B||--------0--------0--------|--------0-----------0-----|
G||-----0-----0--------0-----|-----0-----0-----------0--|
D||-----------------------2--|--------------------------|
A||--------------------------|--------------------------|
E||--0-----------------------|--0-----------------------|

                                                             
  |--------------0-----------|--------------2/3/2--------|
  |--------1--------0/-1-----|--------3------------3-----|
  |-----0-----0-----------0--|-----2-----2------------2--|
  |--------------------------|--0------------------------|
  |--3-----------------------|---------------------------|
  |--------------------------|---------------------------|


intro...


strofa 1. 


 De-o viata te visez
                    
 Mi-e gandul doar la tine
 Si imi imaginez
 Ca esti aici cu mine
 Aici unde doar roua
 Ne deranjeaza fruntea
 Pe munte-i casa mea
 Aici, iubita mea.

strofa 2. 

 Noaptea ma trezesc
 Nu stiu ce e cu mine
 La tine ma gandesc
 As vrea sa fiu cu tine
 Acolo-n inaltimi
 In codrii-ntunecati
 La cabana ascunsa 
 Din muntii minunati


refren
                
 Prin ganduri si soapte  
            
 Ma afund in noapte
                
 Duar pe tine te vreau
             
 Dar esti atat de departe
 Prin ganduri si soapte 
 Parca te vad in zare
 Eu te astept iubito 
 Sa imi iesi in cale

strofa 3.

 Hai sa fugim pe munte
 Sa fim in casa mea
 Eu stanca vietii tale
 Tu floarea de pe ea
 Sa ne-gropam in codrii
 Inalti si prea frumosi
 Ca zici tu, iubita mea
 Fi sigur ca spun Da!

Folk  

Comentarii

Pentru a putea vota sau adăuda comentarii, e nevoie să te autentifici sau înregistrezi .

Acorduri